  0
SECTION
  2
HEADER
  9
$ACADVER
  1
AC1015
  9
$ACADMAINTVER
 70
    20
  9
$DWGCODEPAGE
  3
ANSI_932
  9
$INSBASE
 10
0.0
 20
0.0
 30
0.0
  9
$EXTMIN
 10
-270.0164782349211
 20
-405.802110918667
 30
-0.0015258207003583
  9
$EXTMAX
 10
270.0164807494923
 20
397.0880822710249
 30
0.0000000349246037
  9
$LIMMIN
 10
0.0
 20
0.0
  9
$LIMMAX
 10
0.0
 20
0.0
  9
$ORTHOMODE
 70
     0
  9
$REGENMODE
 70
     1
  9
$FILLMODE
 70
     1
  9
$QTEXTMODE
 70
     0
  9
$MIRRTEXT
 70
     1
  9
$LTSCALE
 40
15.24
  9
$ATTMODE
 70
     1
  9
$TEXTSIZE
 40
0.0
  9
$TRACEWID
 40
1.0
  9
$TEXTSTYLE
  7
STANDARD
  9
$CLAYER
  8
DATA
  9
$CELTYPE
  6
ByLayer
  9
$CECOLOR
 62
   256
  9
$CELTSCALE
 40
1.0
  9
$DISPSILH
 70
     0
  9
$DIMSCALE
 40
1.0
  9
$DIMASZ
 40
0.18
  9
$DIMEXO
 40
0.0625
  9
$DIMDLI
 40
0.38
  9
$DIMRND
 40
0.0
  9
$DIMDLE
 40
0.0
  9
$DIMEXE
 40
0.18
  9
$DIMTP
 40
0.0
  9
$DIMTM
 40
0.0
  9
$DIMTXT
 40
0.18
  9
$DIMCEN
 40
0.09
  9
$DIMTSZ
 40
0.0
  9
$DIMTOL
 70
     0
  9
$DIMLIM
 70
     0
  9
$DIMTIH
 70
     1
  9
$DIMTOH
 70
     1
  9
$DIMSE1
 70
     0
  9
$DIMSE2
 70
     0
  9
$DIMTAD
 70
     0
  9
$DIMZIN
 70
     0
  9
$DIMBLK
  1

  9
$DIMASO
 70
     1
  9
$DIMSHO
 70
     1
  9
$DIMPOST
  1

  9
$DIMAPOST
  1

  9
$DIMALT
 70
     0
  9
$DIMALTD
 70
     2
  9
$DIMALTF
 40
25.4
  9
$DIMLFAC
 40
1.0
  9
$DIMTOFL
 70
     0
  9
$DIMTVP
 40
0.0
  9
$DIMTIX
 70
     0
  9
$DIMSOXD
 70
     0
  9
$DIMSAH
 70
     0
  9
$DIMBLK1
  1

  9
$DIMBLK2
  1

  9
$DIMSTYLE
  2
STANDARD
  9
$DIMCLRD
 70
     0
  9
$DIMCLRE
 70
     0
  9
$DIMCLRT
 70
     0
  9
$DIMTFAC
 40
1.0
  9
$DIMGAP
 40
0.09
  9
$DIMJUST
 70
     0
  9
$DIMSD1
 70
     0
  9
$DIMSD2
 70
     0
  9
$DIMTOLJ
 70
     1
  9
$DIMTZIN
 70
     0
  9
$DIMALTZ
 70
     0
  9
$DIMALTTZ
 70
     0
  9
$DIMUPT
 70
     0
  9
$DIMDEC
 70
     4
  9
$DIMTDEC
 70
     4
  9
$DIMALTU
 70
     2
  9
$DIMALTTD
 70
     2
  9
$DIMTXSTY
  7
STANDARD
  9
$DIMAUNIT
 70
     0
  9
$DIMADEC
 70
     0
  9
$DIMALTRND
 40
0.0
  9
$DIMAZIN
 70
     0
  9
$DIMDSEP
 70
    46
  9
$DIMATFIT
 70
     3
  9
$DIMFRAC
 70
     0
  9
$DIMLDRBLK
  1

  9
$DIMLUNIT
 70
     2
  9
$DIMLWD
 70
    -2
  9
$DIMLWE
 70
    -2
  9
$DIMTMOVE
 70
     0
  9
$LUNITS
 70
     2
  9
$LUPREC
 70
     4
  9
$SKETCHINC
 40
0.1
  9
$FILLETRAD
 40
0.0
  9
$AUNITS
 70
     0
  9
$AUPREC
 70
     0
  9
$MENU
  1
acad
  9
$ELEVATION
 40
0.0
  9
$PELEVATION
 40
0.0
  9
$THICKNESS
 40
0.0
  9
$LIMCHECK
 70
     0
  9
$CHAMFERA
 40
0.0
  9
$CHAMFERB
 40
0.0
  9
$CHAMFERC
 40
0.0
  9
$CHAMFERD
 40
0.0
  9
$SKPOLY
 70
     0
  9
$TDCREATE
 40
2457834.577592593
  9
$TDUCREATE
 40
2457834.202592593
  9
$TDUPDATE
 40
2457834.588379629
  9
$TDUUPDATE
 40
2457834.213379630
  9
$TDINDWG
 40
0.0002893519
  9
$TDUSRTIMER
 40
0.0002893519
  9
$USRTIMER
 70
     1
  9
$ANGBASE
 50
0.0
  9
$ANGDIR
 70
     0
  9
$PDMODE
 70
     1
  9
$PDSIZE
 40
-2.0
  9
$PLINEWID
 40
0.0
  9
$SPLFRAME
 70
     0
  9
$SPLINETYPE
 70
     6
  9
$SPLINESEGS
 70
     8
  9
$HANDSEED
  5
4B8
  9
$SURFTAB1
 70
     6
  9
$SURFTAB2
 70
     6
  9
$SURFTYPE
 70
     6
  9
$SURFU
 70
     6
  9
$SURFV
 70
     6
  9
$UCSBASE
  2

  9
$UCSNAME
  2

  9
$UCSORG
 10
0.0
 20
0.0
 30
0.0
  9
$UCSXDIR
 10
1.0
 20
0.0
 30
0.0
  9
$UCSYDIR
 10
0.0
 20
1.0
 30
0.0
  9
$UCSORTHOREF
  2

  9
$UCSORTHOVIEW
 70
     0
  9
$UCSORGTOP
 10
0.0
 20
0.0
 30
0.0
  9
$UCSORGBOTTOM
 10
0.0
 20
0.0
 30
0.0
  9
$UCSORGLEFT
 10
0.0
 20
0.0
 30
0.0
  9
$UCSORGRIGHT
 10
0.0
 20
0.0
 30
0.0
  9
$UCSORGFRONT
 10
0.0
 20
0.0
 30
0.0
  9
$UCSORGBACK
 10
0.0
 20
0.0
 30
0.0
  9
$PUCSBASE
  2

  9
$PUCSNAME
  2

  9
$PUCSORG
 10
0.0
 20
0.0
 30
0.0
  9
$PUCSXDIR
 10
1.0
 20
0.0
 30
0.0
  9
$PUCSYDIR
 10
0.0
 20
1.0
 30
0.0
  9
$PUCSORTHOREF
  2

  9
$PUCSORTHOVIEW
 70
     0
  9
$PUCSORGTOP
 10
0.0
 20
0.0
 30
0.0
  9
$PUCSORGBOTTOM
 10
0.0
 20
0.0
 30
0.0
  9
$PUCSORGLEFT
 10
0.0
 20
0.0
 30
0.0
  9
$PUCSORGRIGHT
 10
0.0
 20
0.0
 30
0.0
  9
$PUCSORGFRONT
 10
0.0
 20
0.0
 30
0.0
  9
$PUCSORGBACK
 10
0.0
 20
0.0
 30
0.0
  9
$USERI1
 70
     0
  9
$USERI2
 70
     0
  9
$USERI3
 70
     0
  9
$USERI4
 70
     0
  9
$USERI5
 70
     0
  9
$USERR1
 40
0.0
  9
$USERR2
 40
0.0
  9
$USERR3
 40
0.0
  9
$USERR4
 40
0.0
  9
$USERR5
 40
0.0
  9
$WORLDVIEW
 70
     1
  9
$SHADEDGE
 70
     3
  9
$SHADEDIF
 70
    70
  9
$TILEMODE
 70
     1
  9
$MAXACTVP
 70
    64
  9
$PINSBASE
 10
0.0
 20
0.0
 30
0.0
  9
$PLIMCHECK
 70
     0
  9
$PEXTMIN
 10
1.000000000000000E+20
 20
1.000000000000000E+20
 30
1.000000000000000E+20
  9
$PEXTMAX
 10
-1.000000000000000E+20
 20
-1.000000000000000E+20
 30
-1.000000000000000E+20
  9
$PLIMMIN
 10
0.0
 20
0.0
  9
$PLIMMAX
 10
12.0
 20
9.0
  9
$UNITMODE
 70
     0
  9
$VISRETAIN
 70
     0
  9
$PLINEGEN
 70
     1
  9
$PSLTSCALE
 70
     0
  9
$TREEDEPTH
 70
  3020
  9
$CMLSTYLE
  2
Standard
  9
$CMLJUST
 70
     0
  9
$CMLSCALE
 40
1.0
  9
$PROXYGRAPHICS
 70
     1
  9
$MEASUREMENT
 70
     0
  9
$CELWEIGHT
370
    -1
  9
$ENDCAPS
280
     0
  9
$JOINSTYLE
280
     0
  9
$LWDISPLAY
290
     0
  9
$INSUNITS
 70
     0
  9
$HYPERLINKBASE
  1

  9
$STYLESHEET
  1

  9
$XEDIT
290
     1
  9
$CEPSNTYPE
380
     0
  9
$PSTYLEMODE
290
     1
  9
$FINGERPRINTGUID
  2
{EF41DA59-0010-1F48-AE33-5C279C2221B8}
  9
$VERSIONGUID
  2
{F10FFA79-A1E1-3748-A429-F40A2DD53117}
  9
$EXTNAMES
290
     1
  9
$PSVPSCALE
 40
0.0
  9
$OLESTARTUP
290
     0
  0
ENDSEC
  0
SECTION
  2
CLASSES
  0
CLASS
  1
ACDBDICTIONARYWDFLT
  2
AcDbDictionaryWithDefault
  3
ObjectDBX Classes
 90
        0
280
     0
281
     0
  0
CLASS
  1
MATERIAL
  2
AcDbMaterial
  3
ObjectDBX Classes
 90
     1153
280
     0
281
     0
  0
CLASS
  1
VISUALSTYLE
  2
AcDbVisualStyle
  3
ObjectDBX Classes
 90
     4095
280
     0
281
     0
  0
CLASS
  1
SCALE
  2
AcDbScale
  3
ObjectDBX Classes
 90
     1153
280
     0
281
     0
  0
CLASS
  1
TABLESTYLE
  2
AcDbTableStyle
  3
ObjectDBX Classes
 90
     4095
280
     0
281
     0
  0
CLASS
  1
MLEADERSTYLE
  2
AcDbMLeaderStyle
  3
ACDB_MLEADERSTYLE_CLASS
 90
     4095
280
     0
281
     0
  0
CLASS
  1
ACDBSECTIONVIEWSTYLE
  2
AcDbSectionViewStyle
  3
ObjectDBX Classes
 90
     1025
280
     0
281
     0
  0
CLASS
  1
ACDBDETAILVIEWSTYLE
  2
AcDbDetailViewStyle
  3
ObjectDBX Classes
 90
     1025
280
     0
281
     0
  0
CLASS
  1
DICTIONARYVAR
  2
AcDbDictionaryVar
  3
ObjectDBX Classes
 90
        0
280
     0
281
     0
  0
CLASS
  1
CELLSTYLEMAP
  2
AcDbCellStyleMap
  3
ObjectDBX Classes
 90
     1152
280
     0
281
     0
  0
CLASS
  1
ACDBPLACEHOLDER
  2
AcDbPlaceHolder
  3
ObjectDBX Classes
 90
        0
280
     0
281
     0
  0
CLASS
  1
LAYOUT
  2
AcDbLayout
  3
ObjectDBX Classes
 90
        0
280
     0
281
     0
  0
ENDSEC
  0
SECTION
  2
TABLES
  0
TABLE
  2
VPORT
  5
3E2
330
0
100
AcDbSymbolTable
 70
     1
  0
VPORT
  5
44E
330
3E2
100
AcDbSymbolTableRecord
100
AcDbViewportTableRecord
  2
*ACTIVE
 70
     0
 10
0.0
 20
0.0
 11
1.0
 21
1.0
 12
0.0000012572857031
 22
-4.35701432382109
 13
0.0
 23
0.0
 14
1.0
 24
1.0
 15
0.0
 25
0.0
 16
0.0
 26
0.0
 36
1.0
 17
0.0
 27
0.0
 37
0.0
 40
807.3342348494133
 41
2.345337026777469
 42
50.0
 43
0.0
 44
0.0
 50
0.0
 51
0.0
 71
     0
 72
  2000
 73
     1
 74
     1
 75
     0
 76
     0
 77
     0
 78
     0
281
     0
 65
     1
110
0.0
120
0.0
130
0.0
111
1.0
121
0.0
131
0.0
112
0.0
122
1.0
132
0.0
 79
     0
146
0.0
1001
ACAD_NAV_VCDISPLAY
1070
     3
  0
ENDTAB
  0
TABLE
  2
LTYPE
  5
3DF
330
0
100
AcDbSymbolTable
 70
    11
  0
LTYPE
  5
434
330
3DF
100
AcDbSymbolTableRecord
100
AcDbLinetypeTableRecord
  2
ByBlock
 70
     0
  3

 72
    65
 73
     0
 40
0.0
  0
LTYPE
  5
435
330
3DF
100
AcDbSymbolTableRecord
100
AcDbLinetypeTableRecord
  2
ByLayer
 70
     0
  3

 72
    65
 73
     0
 40
0.0
  0
LTYPE
  5
436
330
3DF
100
AcDbSymbolTableRecord
100
AcDbLinetypeTableRecord
  2
CONTINUOUS
 70
     0
  3
Solid line
 72
    65
 73
     0
 40
0.0
  0
ENDTAB
  0
TABLE
  2
LAYER
  5
3DC
330
0
100
AcDbSymbolTable
 70
     5
  0
LAYER
  5
42E
102
{ACAD_XDICTIONARY
360
462
102
}
330
3DC
100
AcDbSymbolTableRecord
100
AcDbLayerTableRecord
  2
0
 70
     0
 62
     7
  6
CONTINUOUS
370
    -3
390
3E9
  0
LAYER
  5
44D
102
{ACAD_XDICTIONARY
360
464
102
}
330
3DC
100
AcDbSymbolTableRecord
100
AcDbLayerTableRecord
  2
DATA
 70
     0
 62
     7
  6
CONTINUOUS
370
    -3
390
3E9
  0
LAYER
  5
459
102
{ACAD_XDICTIONARY
360
466
102
}
330
3DC
100
AcDbSymbolTableRecord
100
AcDbLayerTableRecord
  2
HIBINO-BASE
 70
     0
 62
     7
  6
CONTINUOUS
370
    -3
390
3E9
  0
LAYER
  5
45A
102
{ACAD_XDICTIONARY
360
468
102
}
330
3DC
100
AcDbSymbolTableRecord
100
AcDbLayerTableRecord
  2
SPEC
 70
     0
 62
     7
  6
CONTINUOUS
370
    -3
390
3E9
  0
LAYER
  5
45B
102
{ACAD_XDICTIONARY
360
46A
102
}
330
3DC
100
AcDbSymbolTableRecord
100
AcDbLayerTableRecord
  2
DIMNSIONS
 70
     0
 62
     7
  6
CONTINUOUS
370
    -3
390
3E9
  0
ENDTAB
  0
TABLE
  2
STYLE
  5
3DD
330
0
100
AcDbSymbolTable
 70
     3
  0
STYLE
  5
42F
330
3DD
100
AcDbSymbolTableRecord
100
AcDbTextStyleTableRecord
  2
STANDARD
 70
     0
 40
0.0
 41
1.0
 50
0.0
 71
     0
 42
0.0
  3
txt
  4
BIGFONT.SHX
  0
ENDTAB
  0
TABLE
  2
VIEW
  5
3E0
330
0
100
AcDbSymbolTable
 70
     0
  0
ENDTAB
  0
TABLE
  2
UCS
  5
3E1
330
0
100
AcDbSymbolTable
 70
     0
  0
ENDTAB
  0
TABLE
  2
APPID
  5
3E3
330
0
100
AcDbSymbolTable
 70
     4
  0
APPID
  5
430
330
3E3
100
AcDbSymbolTableRecord
100
AcDbRegAppTableRecord
  2
ACAD
 70
     0
  0
APPID
  5
437
330
3E3
100
AcDbSymbolTableRecord
100
AcDbRegAppTableRecord
  2
AcadAnnotative
 70
     0
  0
APPID
  5
476
330
3E3
100
AcDbSymbolTableRecord
100
AcDbRegAppTableRecord
  2
ACAD_NAV_VCDISPLAY
 70
     0
  0
APPID
  5
4AF
330
3E3
100
AcDbSymbolTableRecord
100
AcDbRegAppTableRecord
  2
ACAD_MLEADERVER
 70
     0
  0
ENDTAB
  0
TABLE
  2
DIMSTYLE
  5
3E4
330
0
100
AcDbSymbolTable
 70
     2
100
AcDbDimStyleTable
 71
     0
  0
DIMSTYLE
105
431
330
3E4
100
AcDbSymbolTableRecord
100
AcDbDimStyleTableRecord
  2
STANDARD
 70
     0
279
     2
340
42F
  0
ENDTAB
  0
TABLE
  2
BLOCK_RECORD
  5
3DB
330
0
100
AcDbSymbolTable
 70
     0
  0
BLOCK_RECORD
  5
449
330
3DB
100
AcDbSymbolTableRecord
100
AcDbBlockTableRecord
  2
*Model_Space
340
44C
  0
BLOCK_RECORD
  5
445
330
3DB
100
AcDbSymbolTableRecord
100
AcDbBlockTableRecord
  2
*Paper_Space
340
448
  0
ENDTAB
  0
ENDSEC
  0
SECTION
  2
BLOCKS
  0
BLOCK
  5
44A
330
449
100
AcDbEntity
  8
0
100
AcDbBlockBegin
  2
*Model_Space
 70
     0
 10
0.0
 20
0.0
 30
0.0
  3
*Model_Space
  1

  0
ENDBLK
  5
44B
330
449
100
AcDbEntity
  8
0
100
AcDbBlockEnd
  0
BLOCK
  5
446
330
445
100
AcDbEntity
 67
     1
  8
0
100
AcDbBlockBegin
  2
*Paper_Space
 70
     0
 10
0.0
 20
0.0
 30
0.0
  3
*Paper_Space
  1

  0
ENDBLK
  5
447
330
445
100
AcDbEntity
 67
     1
  8
0
100
AcDbBlockEnd
  0
ENDSEC
  0
SECTION
  2
ENTITIES
  0
LINE
  5
2C
330
449
100
AcDbEntity
  8
HIBINO-BASE
  6
Continuous
 62
     7
100
AcDbLine
 10
-269.9999999999999
 20
397.0636300000001
 30
0.0
 11
269.9999999999999
 21
397.0636300000001
 31
0.0
  0
LINE
  5
2D
330
449
100
AcDbEntity
  8
HIBINO-BASE
  6
Continuous
 62
     7
100
AcDbLine
 10
269.9999999999999
 20
-382.93637
 30
0.0
 11
-269.9999999999999
 21
-382.93637
 31
0.0
  0
LINE
  5
2E
330
449
100
AcDbEntity
  8
HIBINO-BASE
  6
Continuous
 62
     7
100
AcDbLine
 10
-269.9999999999999
 20
-382.93637
 30
0.0
 11
-269.9999999999999
 21
397.0636300000001
 31
0.0
  0
LINE
  5
2F
330
449
100
AcDbEntity
  8
HIBINO-BASE
  6
Continuous
 62
     7
100
AcDbLine
 10
269.9999999999999
 20
397.0636300000001
 30
0.0
 11
269.9999999999999
 21
-382.93637
 31
0.0
  0
LINE
  5
30
330
449
100
AcDbEntity
  8
HIBINO-BASE
  6
Continuous
 62
     7
100
AcDbLine
 10
0.0000000000000213
 20
-315.43637
 30
0.0
 11
269.9999999999999
 21
-315.43637
 31
0.0
  0
LINE
  5
31
330
449
100
AcDbEntity
  8
HIBINO-BASE
  6
Continuous
 62
     7
100
AcDbLine
 10
0.0000000000000213
 20
-382.93637
 30
0.0
 11
0.0000000000000213
 21
-315.43637
 31
0.0
  0
TEXT
  5
32
330
449
100
AcDbEntity
  8
HIBINO-BASE
 62
     7
100
AcDbText
 10
2.700000000000037
 20
-322.96245
 30
0.0
 40
4.886523437499999
  1
NOTE
 41
0.7
 11
2.700000000000038
 21
-318.0759265625
 31
0.0
100
AcDbText
 73
     3
  0
LINE
  5
33
330
449
100
AcDbEntity
  8
HIBINO-BASE
  6
Continuous
 62
     7
100
AcDbLine
 10
105.0
 20
-382.93637
 30
0.0
 11
105.0
 21
-315.43637
 31
0.0
  0
TEXT
  5
34
330
449
100
AcDbEntity
  8
HIBINO-BASE
 62
     7
100
AcDbText
 10
107.7
 20
-322.96245
 30
0.0
 40
4.886523437499999
  1
TITLE
 41
0.7
 11
107.7
 21
-318.0759265625
 31
0.0
100
AcDbText
 73
     3
  0
LINE
  5
35
330
449
100
AcDbEntity
  8
HIBINO-BASE
  6
Continuous
 62
     7
100
AcDbLine
 10
0.0000000000000213
 20
-352.93637
 30
0.0
 11
269.9999999999999
 21
-352.93637
 31
0.0
  0
TEXT
  5
36
330
449
100
AcDbEntity
  8
HIBINO-BASE
 62
     7
100
AcDbText
 10
145.2
 20
-360.2934900000001
 30
0.0
 40
4.886523437499999
  1
DRAWN
 41
0.7
 11
145.2
 21
-355.4069665625001
 31
0.0
100
AcDbText
 73
     3
  0
TEXT
  5
37
330
449
100
AcDbEntity
  8
HIBINO-BASE
 62
     7
100
AcDbText
 10
70.19999999999999
 20
-360.2934900000001
 30
0.0
 40
4.886523437499999
  1
DATE
 41
0.7
 11
70.19999999999999
 21
-355.4069665625001
 31
0.0
100
AcDbText
 73
     3
  0
TEXT
  5
38
330
449
100
AcDbEntity
  8
HIBINO-BASE
 62
     7
100
AcDbText
 10
40.2
 20
-360.2934900000001
 30
0.0
 40
4.886523437499999
  1
SCALE
 41
0.7
 11
40.2
 21
-355.4069665625001
 31
0.0
100
AcDbText
 73
     3
  0
TEXT
  5
39
330
449
100
AcDbEntity
  8
HIBINO-BASE
 62
     7
100
AcDbText
 10
107.7
 20
-360.2934900000001
 30
0.0
 40
4.886523437499999
  1
DESIGN
 41
0.7
 11
107.7
 21
-355.4069665625001
 31
0.0
100
AcDbText
 73
     3
  0
TEXT
  5
3A
330
449
100
AcDbEntity
  8
HIBINO-BASE
 62
     7
100
AcDbText
 10
220.2
 20
-360.2934900000001
 30
0.0
 40
4.886523437499999
  1
DRAWING NO.
 41
0.7
 11
220.2
 21
-355.4069665625001
 31
0.0
100
AcDbText
 73
     3
  0
TEXT
  5
3B
330
449
100
AcDbEntity
  8
HIBINO-BASE
 62
     7
100
AcDbText
 10
182.7
 20
-360.2934900000001
 30
0.0
 40
4.886523437499999
  1
CHECK
 41
0.7
 11
182.7
 21
-355.4069665625001
 31
0.0
100
AcDbText
 73
     3
  0
LINE
  5
3C
330
449
100
AcDbEntity
  8
HIBINO-BASE
  6
Continuous
 62
     7
100
AcDbLine
 10
43.12500000000002
 20
-379.18637
 30
0.0
 11
54.37500000000007
 21
-367.93637
 31
0.0
  0
TEXT
  5
3D
330
449
100
AcDbEntity
  8
HIBINO-BASE
 62
     7
100
AcDbText
 10
41.25000000000001
 20
-371.2632000000001
 30
0.0
 40
4.886523437499999
  1
1
 41
0.7
 11
41.25000000000001
 21
-366.3766765625001
 31
0.0
100
AcDbText
 73
     3
  0
LINE
  5
3E
330
449
100
AcDbEntity
  8
HIBINO-BASE
  6
Continuous
 62
     7
100
AcDbLine
 10
37.50000000000002
 20
-382.93637
 30
0.0
 11
37.50000000000002
 21
-352.93637
 31
0.0
  0
LINE
  5
3F
330
449
100
AcDbEntity
  8
HIBINO-BASE
  6
Continuous
 62
     7
100
AcDbLine
 10
67.49999999999997
 20
-382.93637
 30
0.0
 11
67.49999999999997
 21
-352.93637
 31
0.0
  0
LINE
  5
40
330
449
100
AcDbEntity
  8
HIBINO-BASE
  6
Continuous
 62
     7
100
AcDbLine
 10
142.4999999999999
 20
-352.93637
 30
0.0
 11
142.4999999999999
 21
-382.93637
 31
0.0
  0
LINE
  5
41
330
449
100
AcDbEntity
  8
HIBINO-BASE
  6
Continuous
 62
     7
100
AcDbLine
 10
217.5000000000001
 20
-352.93637
 30
0.0
 11
217.5000000000001
 21
-382.93637
 31
0.0
  0
LINE
  5
42
330
449
100
AcDbEntity
  8
HIBINO-BASE
  6
Continuous
 62
     7
100
AcDbLine
 10
179.9999999999999
 20
-382.93637
 30
0.0
 11
179.9999999999999
 21
-352.93637
 31
0.0
  0
TEXT
  5
43
330
449
100
AcDbEntity
  8
HIBINO-BASE
 62
     7
100
AcDbText
 10
70.06962000000005
 20
-374.34543
 30
0.0
 40
4.886523437499999
  1
'17.03.
 41
0.7
 11
70.06962000000005
 21
-369.4589065625
 31
0.0
100
AcDbText
 73
     3
  0
TEXT
  5
44
330
449
100
AcDbEntity
  8
HIBINO-BASE
 62
     7
100
AcDbText
 10
52.50000000000002
 20
-376.8882
 30
0.0
 40
4.886523437499999
  1
3
 41
0.7
 11
52.50000000000002
 21
-372.0016765625
 31
0.0
100
AcDbText
 73
     3
  0
TEXT
  5
45
330
449
100
AcDbEntity
  8
HIBINO-BASE
 62
     7
100
AcDbText
 10
147.0174300331038
 20
-374.34543
 30
0.0
 40
4.886523437499999
  1
N.Sasaki
 41
0.7
 11
147.0174300331038
 21
-369.4589065625
 31
0.0
100
AcDbText
 73
     3
  0
TEXT
  5
46
330
449
100
AcDbEntity
  8
HIBINO-BASE
 62
     7
100
AcDbText
 10
11.65000000000008
 20
-377.00837
 30
0.0
 40
9.773046874999998
  1
A4
 41
0.7
 11
11.65000000000008
 21
-367.235323125
 31
0.0
100
AcDbText
 73
     3
  0
TEXT
  5
47
330
449
100
AcDbEntity
  8
HIBINO-BASE
 62
     7
100
AcDbText
 10
2.875000000000006
 20
-360.794735
 30
0.0
 40
4.886523437499999
  1
PAPER SIZE
 41
0.7
 11
2.875000000000007
 21
-355.9082115625
 31
0.0
100
AcDbText
 73
     3
  0
TEXT
  5
48
330
449
100
AcDbEntity
  8
HIBINO-BASE
 62
     7
100
AcDbText
 10
-248.4479999999999
 20
-402.1624033999999
 30
0.0
 40
10.8001325390625
  1
Hibino Corporation
 41
0.7
 11
-248.4479999999999
 21
-391.3622708609375
 31
0.0
100
AcDbText
 73
     3
  0
TEXT
  5
49
330
449
100
AcDbEntity
  8
HIBINO-BASE
 62
     7
100
AcDbText
 10
150.20517
 20
-402.1624033999999
 30
0.0
 40
10.8001325390625
  1
ヒビノ株式会社
 41
0.7
 11
150.20517
 21
-391.3622708609375
 31
0.0
100
AcDbText
 73
     3
  0
LINE
  5
4A
330
449
100
AcDbEntity
  8
SPEC
  6
Continuous
 62
     7
100
AcDbLine
 10
-247.4999999999999
 20
367.06363
 30
0.0
 11
225.0
 21
367.06363
 31
0.0
  0
LINE
  5
4B
330
449
100
AcDbEntity
  8
SPEC
  6
Continuous
 62
     7
100
AcDbLine
 10
-247.4999999999999
 20
355.81363
 30
0.0
 11
225.0
 21
355.81363
 31
0.0
  0
LINE
  5
4C
330
449
100
AcDbEntity
  8
SPEC
  6
Continuous
 62
     7
100
AcDbLine
 10
-247.4999999999999
 20
367.06363
 30
0.0
 11
-247.4999999999999
 21
209.56363
 31
0.0
  0
TEXT
  5
4D
330
449
100
AcDbEntity
  8
SPEC
 62
     7
100
AcDbText
 10
-243.7499999999999
 20
371.2434399999998
 30
0.0
 40
7.329785156249999
  1
仕様
 41
0.7
 11
-243.7499999999999
 21
378.5732251562499
 31
0.0
100
AcDbText
 73
     3
  0
LINE
  5
4E
330
449
100
AcDbEntity
  8
SPEC
  6
Continuous
 62
     7
100
AcDbLine
 10
-149.9999999999999
 20
367.06363
 30
0.0
 11
-149.9999999999999
 21
209.56363
 31
0.0
  0
LINE
  5
4F
330
449
100
AcDbEntity
  8
SPEC
  6
Continuous
 62
     7
100
AcDbLine
 10
225.0
 20
367.06363
 30
0.0
 11
225.0
 21
209.56363
 31
0.0
  0
LINE
  5
50
330
449
100
AcDbEntity
  8
SPEC
  6
Continuous
 62
     7
100
AcDbLine
 10
-247.4999999999999
 20
344.56363
 30
0.0
 11
225.0
 21
344.56363
 31
0.0
  0
LINE
  5
51
330
449
100
AcDbEntity
  8
SPEC
  6
Continuous
 62
     7
100
AcDbLine
 10
-247.4999999999999
 20
333.31363
 30
0.0
 11
225.0
 21
333.31363
 31
0.0
  0
LINE
  5
52
330
449
100
AcDbEntity
  8
SPEC
  6
Continuous
 62
     7
100
AcDbLine
 10
-247.4999999999999
 20
322.06363
 30
0.0
 11
225.0
 21
322.06363
 31
0.0
  0
LINE
  5
53
330
449
100
AcDbEntity
  8
SPEC
  6
Continuous
 62
     7
100
AcDbLine
 10
-247.4999999999999
 20
310.81363
 30
0.0
 11
225.0
 21
310.81363
 31
0.0
  0
LINE
  5
54
330
449
100
AcDbEntity
  8
SPEC
  6
Continuous
 62
     7
100
AcDbLine
 10
-247.4999999999999
 20
299.56363
 30
0.0
 11
225.0
 21
299.56363
 31
0.0
  0
LINE
  5
55
330
449
100
AcDbEntity
  8
SPEC
  6
Continuous
 62
     7
100
AcDbLine
 10
-247.4999999999999
 20
288.31363
 30
0.0
 11
225.0
 21
288.31363
 31
0.0
  0
LINE
  5
56
330
449
100
AcDbEntity
  8
SPEC
  6
Continuous
 62
     7
100
AcDbLine
 10
-247.4999999999999
 20
277.06363
 30
0.0
 11
225.0
 21
277.06363
 31
0.0
  0
LINE
  5
57
330
449
100
AcDbEntity
  8
SPEC
  6
Continuous
 62
     7
100
AcDbLine
 10
-247.4999999999999
 20
265.81363
 30
0.0
 11
225.0
 21
265.81363
 31
0.0
  0
LINE
  5
58
330
449
100
AcDbEntity
  8
SPEC
  6
Continuous
 62
     7
100
AcDbLine
 10
-247.4999999999999
 20
254.56363
 30
0.0
 11
225.0
 21
254.56363
 31
0.0
  0
LINE
  5
59
330
449
100
AcDbEntity
  8
SPEC
  6
Continuous
 62
     7
100
AcDbLine
 10
-247.4999999999999
 20
243.31363
 30
0.0
 11
225.0
 21
243.31363
 31
0.0
  0
LINE
  5
5A
330
449
100
AcDbEntity
  8
SPEC
  6
Continuous
 62
     7
100
AcDbLine
 10
-247.4999999999999
 20
232.06363
 30
0.0
 11
225.0
 21
232.06363
 31
0.0
  0
LINE
  5
5B
330
449
100
AcDbEntity
  8
SPEC
  6
Continuous
 62
     7
100
AcDbLine
 10
-247.4999999999999
 20
209.56363
 30
0.0
 11
225.0
 21
209.56363
 31
0.0
  0
TEXT
  5
5C
330
449
100
AcDbEntity
  8
SPEC
 62
     7
100
AcDbText
 10
-244.8
 20
223.1773833333333
 30
0.0
 40
5.700944010416665
  1
付属品
 41
0.7
 11
-244.8
 21
228.8783273437499
 31
0.0
100
AcDbText
 73
     3
  0
TEXT
  5
5D
330
449
100
AcDbEntity
  8
SPEC
 62
     7
100
AcDbText
 10
-244.8
 20
358.1773833333332
 30
0.0
 40
5.700944010416665
  1
形式
 41
0.7
 11
-244.8
 21
363.8783273437498
 31
0.0
100
AcDbText
 73
     3
  0
TEXT
  5
5E
330
449
100
AcDbEntity
  8
SPEC
 62
     7
100
AcDbText
 10
-147.2999999999999
 20
223.1773833333333
 30
0.0
 40
5.700944010416665
  1
ウインドスクリーン×3、ワイヤーメッシュキャップ×2、メイクアップカバー×3、モイスチャーシールド×3、
 41
0.7
 11
-147.2999999999999
 21
228.8783273437499
 31
0.0
100
AcDbText
 73
     3
  0
TEXT
  5
5F
330
449
100
AcDbEntity
  8
SPEC
 62
     7
100
AcDbText
 10
-147.2999999999999
 20
358.1773833333332
 30
0.0
 40
5.700944010416665
  1
コンデンサー型 
 41
0.7
 11
-147.2999999999999
 21
363.8783273437498
 31
0.0
100
AcDbText
 73
     3
  0
TEXT
  5
60
330
449
100
AcDbEntity
  8
SPEC
 62
     7
100
AcDbText
 10
-244.8
 20
335.6773833333331
 30
0.0
 40
5.700944010416665
  1
周波数特性
 41
0.7
 11
-244.8
 21
341.3783273437498
 31
0.0
100
AcDbText
 73
     3
  0
TEXT
  5
61
330
449
100
AcDbEntity
  8
SPEC
 62
     7
100
AcDbText
 10
-244.8
 20
313.1773833333331
 30
0.0
 40
5.700944010416665
  1
最大音圧レベル
 41
0.7
 11
-244.8
 21
318.8783273437498
 31
0.0
100
AcDbText
 73
     3
  0
TEXT
  5
62
330
449
100
AcDbEntity
  8
SPEC
 62
     7
100
AcDbText
 10
-244.8
 20
290.6773833333332
 30
0.0
 40
5.700944010416665
  1
インピーダンス
 41
0.7
 11
-244.8
 21
296.3783273437498
 31
0.0
100
AcDbText
 73
     3
  0
TEXT
  5
63
330
449
100
AcDbEntity
  8
SPEC
 62
     7
100
AcDbText
 10
-244.8
 20
279.4273833333333
 30
0.0
 40
5.700944010416665
  1
電源
 41
0.7
 11
-244.8
 21
285.1283273437499
 31
0.0
100
AcDbText
 73
     3
  0
TEXT
  5
64
330
449
100
AcDbEntity
  8
SPEC
 62
     7
100
AcDbText
 10
-244.8
 20
268.1773833333332
 30
0.0
 40
5.700944010416665
  1
端子
 41
0.7
 11
-244.8
 21
273.8783273437499
 31
0.0
100
AcDbText
 73
     3
  0
TEXT
  5
65
330
449
100
AcDbEntity
  8
SPEC
 62
     7
100
AcDbText
 10
-244.8
 20
256.9273833333332
 30
0.0
 40
5.700944010416665
  1
ケーブル長
 41
0.7
 11
-244.8
 21
262.6283273437498
 31
0.0
100
AcDbText
 73
     3
  0
TEXT
  5
66
330
449
100
AcDbEntity
  8
SPEC
 62
     7
100
AcDbText
 10
-244.8
 20
234.4273833333333
 30
0.0
 40
5.700944010416665
  1
質量
 41
0.7
 11
-244.8
 21
240.1283273437499
 31
0.0
100
AcDbText
 73
     3
  0
TEXT
  5
67
330
449
100
AcDbEntity
  8
SPEC
 62
     7
100
AcDbText
 10
-147.2999999999999
 20
346.9273833333332
 30
0.0
 40
5.700944010416665
  1
カーディオイド
 41
0.7
 11
-147.2999999999999
 21
352.6283273437499
 31
0.0
100
AcDbText
 73
     3
  0
TEXT
  5
68
330
449
100
AcDbEntity
  8
SPEC
 62
     7
100
AcDbText
 10
-147.2999999999999
 20
335.6773833333331
 30
0.0
 40
5.700944010416665
  1
20Hz～20kHz
 41
0.7
 11
-147.2999999999999
 21
341.3783273437498
 31
0.0
100
AcDbText
 73
     3
  0
TEXT
  5
69
330
449
100
AcDbEntity
  8
SPEC
 62
     7
100
AcDbText
 10
-147.2999999999999
 20
313.1773833333331
 30
0.0
 40
5.700944010416665
  1
145dB SPL
 41
0.7
 11
-147.2999999999999
 21
318.8783273437498
 31
0.0
100
AcDbText
 73
     3
  0
TEXT
  5
6A
330
449
100
AcDbEntity
  8
SPEC
 62
     7
100
AcDbText
 10
-147.2999999999999
 20
290.6773833333332
 30
0.0
 40
5.700944010416665
  1
5,000Ω
 41
0.7
 11
-147.2999999999999
 21
296.3783273437498
 31
0.0
100
AcDbText
 73
     3
  0
TEXT
  5
6B
330
449
100
AcDbEntity
  8
SPEC
 62
     7
100
AcDbText
 10
-147.2999999999999
 20
279.4273833333333
 30
0.0
 40
5.700944010416665
  1
別売のAKGワイヤレスシステムのボディーパック型 送信機、またはポータ ブル・ミキサー(B23 L)から供給。
 41
0.7
 11
-147.2999999999999
 21
285.1283273437499
 31
0.0
100
AcDbText
 73
     3
  0
TEXT
  5
6C
330
449
100
AcDbEntity
  8
SPEC
 62
     7
100
AcDbText
 10
-147.2999999999999
 20
256.9273833333332
 30
0.0
 40
5.700944010416665
  1
約0.95m
 41
0.7
 11
-147.2999999999999
 21
262.6283273437498
 31
0.0
100
AcDbText
 73
     3
  0
TEXT
  5
6D
330
449
100
AcDbEntity
  8
SPEC
 62
     7
100
AcDbText
 10
-147.2999999999999
 20
234.4273833333333
 30
0.0
 40
5.700944010416665
  1
12g(含ケーブル、除端子アダプター)
 41
0.7
 11
-147.2999999999999
 21
240.1283273437499
 31
0.0
100
AcDbText
 73
     3
  0
TEXT
  5
6E
330
449
100
AcDbEntity
  8
SPEC
 62
     7
100
AcDbText
 10
-147.2999999999999
 20
301.9273833333331
 30
0.0
 40
5.700944010416665
  1
37dB SPL(Aウェイト)
 41
0.7
 11
-147.2999999999999
 21
307.6283273437498
 31
0.0
100
AcDbText
 73
     3
  0
TEXT
  5
6F
330
449
100
AcDbEntity
  8
SPEC
 62
     7
100
AcDbText
 10
-147.2999999999999
 20
245.6773833333333
 30
0.0
 40
5.700944010416665
  1
ベージュ(beige)、ココア(cocoa)
 41
0.7
 11
-147.2999999999999
 21
251.3783273437499
 31
0.0
100
AcDbText
 73
     3
  0
TEXT
  5
70
330
449
100
AcDbEntity
  8
SPEC
 62
     7
100
AcDbText
 10
-244.8
 20
346.9273833333332
 30
0.0
 40
5.700944010416665
  1
指向特性
 41
0.7
 11
-244.8
 21
352.6283273437499
 31
0.0
100
AcDbText
 73
     3
  0
TEXT
  5
71
330
449
100
AcDbEntity
  8
SPEC
 62
     7
100
AcDbText
 10
-244.8
 20
324.4273833333331
 30
0.0
 40
5.700944010416665
  1
開回路感度
 41
0.7
 11
-244.8
 21
330.1283273437498
 31
0.0
100
AcDbText
 73
     3
  0
TEXT
  5
72
330
449
100
AcDbEntity
  8
SPEC
 62
     7
100
AcDbText
 10
-147.2999999999999
 20
324.4273833333332
 30
0.0
 40
5.700944010416665
  1
-38dB re 1V/Pa
 41
0.7
 11
-147.2999999999999
 21
330.1283273437499
 31
0.0
100
AcDbText
 73
     3
  0
TEXT
  5
73
330
449
100
AcDbEntity
  8
SPEC
 62
     7
100
AcDbText
 10
-244.8
 20
301.9273833333331
 30
0.0
 40
5.700944010416665
  1
等価雑音レベル
 41
0.7
 11
-244.8
 21
307.6283273437498
 31
0.0
100
AcDbText
 73
     3
  0
TEXT
  5
74
330
449
100
AcDbEntity
  8
SPEC
 62
     7
100
AcDbText
 10
-244.8
 20
245.6773833333333
 30
0.0
 40
5.700944010416665
  1
色
 41
0.7
 11
-244.8
 21
251.3783273437499
 31
0.0
100
AcDbText
 73
     3
  0
TEXT
  5
75
330
449
100
AcDbEntity
  8
SPEC
 62
     7
100
AcDbText
 10
-147.2999999999999
 20
211.9273833333333
 30
0.0
 40
5.700944010416665
  1
ケーブル固定パーツ×3、ケーブルクリップ、AKG端子アダプター、マイクポーチ
 41
0.7
 11
-147.2999999999999
 21
217.6283273437499
 31
0.0
100
AcDbText
 73
     3
  0
TEXT
  5
76
330
449
100
AcDbEntity
  8
SPEC
 62
     7
100
AcDbText
 10
-147.2999999999999
 20
268.1773833333332
 30
0.0
 40
5.700944010416665
  1
Microdot(AKG端子アダプター装着時はミニXLR(3P))
 41
0.7
 11
-147.2999999999999
 21
273.8783273437499
 31
0.0
100
AcDbText
 73
     3
  0
LINE
  5
77
330
449
100
AcDbEntity
  8
DIMNSIONS
  6
Continuous
 62
     7
100
AcDbLine
 10
-123.5
 20
-131.4999999999999
 30
0.0
 11
-123.5
 21
-107.9999999999999
 31
0.0
  0
LINE
  5
78
330
449
100
AcDbEntity
  8
DIMNSIONS
  6
Continuous
 62
     7
100
AcDbLine
 10
-187.5
 20
-128.3999999999977
 30
0.0
 11
-187.5
 21
-107.9999999999999
 31
0.0
  0
LINE
  5
79
330
449
100
AcDbEntity
  8
DIMNSIONS
  6
Continuous
 62
     7
100
AcDbLine
 10
-123.5
 20
-112.4999999999999
 30
0.0
 11
-187.5
 21
-112.4999999999999
 31
0.0
  0
LINE
  5
7A
330
449
100
AcDbEntity
  8
DIMNSIONS
  6
Continuous
 62
     7
100
AcDbLine
 10
-123.5
 20
-112.4999999999999
 30
0.0
 11
-131.0018676757812
 21
-114.5101193854507
 31
0.0
  0
LINE
  5
7B
330
449
100
AcDbEntity
  8
DIMNSIONS
  6
Continuous
 62
     7
100
AcDbLine
 10
-123.5
 20
-112.4999999999999
 30
0.0
 11
-131.0018676757812
 21
-110.4898806145492
 31
0.0
  0
LINE
  5
7C
330
449
100
AcDbEntity
  8
DIMNSIONS
  6
Continuous
 62
     7
100
AcDbLine
 10
-187.5
 20
-112.4999999999999
 30
0.0
 11
-179.9981323242187
 21
-110.4898806145492
 31
0.0
  0
LINE
  5
7D
330
449
100
AcDbEntity
  8
DIMNSIONS
  6
Continuous
 62
     7
100
AcDbLine
 10
-187.5
 20
-112.4999999999999
 30
0.0
 11
-179.9981323242187
 21
-114.5101193854507
 31
0.0
  0
TEXT
  5
7E
330
449
100
AcDbEntity
  8
DIMNSIONS
 62
     7
100
AcDbText
 10
-166.0833333333333
 20
-110.0183333333333
 30
0.0
 40
8.144205729166666
  1
64.0
 41
0.7
 11
-166.0833333333333
 21
-101.8741276041666
 31
0.0
100
AcDbText
 73
     3
  0
TEXT
  5
7F
330
449
100
AcDbEntity
  8
DIMNSIONS
 62
     7
100
AcDbText
 10
-59.99999999999998
 20
-346.1279
 30
0.0
 40
7.329785156249999
  1
(単位：mm)
 41
0.7
 11
-59.99999999999998
 21
-338.7981148437499
 31
0.0
100
AcDbText
 73
     3
  0
LINE
  5
80
330
449
100
AcDbEntity
  8
DIMNSIONS
  6
Continuous
 62
     7
100
AcDbLine
 10
-26.00000000000017
 20
-133.0
 30
0.0
 11
-26.00000000000017
 21
-20.5
 31
0.0
  0
LINE
  5
81
330
449
100
AcDbEntity
  8
DIMNSIONS
  6
Continuous
 62
     7
100
AcDbLine
 10
167.1343985758385
 20
-162.1654027804441
 30
0.0
 11
167.1343985758385
 21
-20.5
 31
0.0
  0
LINE
  5
82
330
449
100
AcDbEntity
  8
DIMNSIONS
  6
Continuous
 62
     7
100
AcDbLine
 10
-26.00000000000017
 20
-25.0
 30
0.0
 11
167.1343985758385
 21
-25.0
 31
0.0
  0
LINE
  5
83
330
449
100
AcDbEntity
  8
DIMNSIONS
  6
Continuous
 62
     7
100
AcDbLine
 10
-26.00000000000017
 20
-25.0
 30
0.0
 11
-18.49813232421892
 21
-22.98988061454927
 31
0.0
  0
LINE
  5
84
330
449
100
AcDbEntity
  8
DIMNSIONS
  6
Continuous
 62
     7
100
AcDbLine
 10
-26.00000000000017
 20
-25.0
 30
0.0
 11
-18.49813232421892
 21
-27.01011938545073
 31
0.0
  0
LINE
  5
85
330
449
100
AcDbEntity
  8
DIMNSIONS
  6
Continuous
 62
     7
100
AcDbLine
 10
167.1343985758385
 20
-25.0
 30
0.0
 11
159.6325309000573
 21
-27.01011938545073
 31
0.0
  0
LINE
  5
86
330
449
100
AcDbEntity
  8
DIMNSIONS
  6
Continuous
 62
     7
100
AcDbLine
 10
167.1343985758385
 20
-25.0
 30
0.0
 11
159.6325309000573
 21
-22.98988061454927
 31
0.0
  0
TEXT
  5
87
330
449
100
AcDbEntity
  8
DIMNSIONS
 62
     7
100
AcDbText
 10
57.33803262125253
 20
-22.01833333333333
 30
0.0
 40
8.144205729166666
  1
(193)
 41
0.7
 11
57.33803262125253
 21
-13.87412760416667
 31
0.0
100
AcDbText
 73
     3
  0
LINE
  5
88
330
449
100
AcDbEntity
  8
DIMNSIONS
  6
Continuous
 62
     7
100
AcDbLine
 10
41.72658572831568
 20
-69.76975564227934
 30
0.0
 11
204.5
 21
-69.76975564227934
 31
0.0
  0
LINE
  5
89
330
449
100
AcDbEntity
  8
DIMNSIONS
  6
Continuous
 62
     7
100
AcDbLine
 10
41.72658572831568
 20
-205.2302443577207
 30
0.0
 11
204.5
 21
-205.2302443577207
 31
0.0
  0
LINE
  5
8A
330
449
100
AcDbEntity
  8
DIMNSIONS
  6
Continuous
 62
     7
100
AcDbLine
 10
200.0
 20
-69.76975564227934
 30
0.0
 11
200.0
 21
-205.2302443577207
 31
0.0
  0
LINE
  5
8B
330
449
100
AcDbEntity
  8
DIMNSIONS
  6
Continuous
 62
     7
100
AcDbLine
 10
200.0
 20
-69.76975564227934
 30
0.0
 11
202.0101193854507
 21
-77.2716233180606
 31
0.0
  0
LINE
  5
8C
330
449
100
AcDbEntity
  8
DIMNSIONS
  6
Continuous
 62
     7
100
AcDbLine
 10
200.0
 20
-69.76975564227934
 30
0.0
 11
197.9898806145493
 21
-77.2716233180606
 31
0.0
  0
LINE
  5
8D
330
449
100
AcDbEntity
  8
DIMNSIONS
  6
Continuous
 62
     7
100
AcDbLine
 10
200.0
 20
-205.2302443577207
 30
0.0
 11
197.9898806145493
 21
-197.7283766819394
 31
0.0
  0
LINE
  5
8E
330
449
100
AcDbEntity
  8
DIMNSIONS
  6
Continuous
 62
     7
100
AcDbLine
 10
200.0
 20
-205.2302443577207
 30
0.0
 11
202.0101193854507
 21
-197.7283766819394
 31
0.0
  0
TEXT
  5
8F
330
449
100
AcDbEntity
  8
DIMNSIONS
 62
     7
100
AcDbText
 10
197.0183333333333
 20
-150.7291666666666
 30
0.0
 40
8.144205729166666
  1
(140)
 50
90.0
 41
0.7
 11
188.8741276041667
 21
-150.7291666666666
 31
0.0
100
AcDbText
 73
     3
  0
LINE
  5
90
330
449
100
AcDbEntity
  8
DIMNSIONS
  6
Continuous
 62
     7
100
AcDbLine
 10
-123.5
 20
-131.4999999999999
 30
0.0
 11
-123.5
 21
-108.0
 31
0.0
  0
LINE
  5
91
330
449
100
AcDbEntity
  8
DIMNSIONS
  6
Continuous
 62
     7
100
AcDbLine
 10
-38.60317414429706
 20
-138.3904585144061
 30
0.0
 11
-38.60317414429706
 21
-108.0
 31
0.0
  0
LINE
  5
92
330
449
100
AcDbEntity
  8
DIMNSIONS
  6
Continuous
 62
     7
100
AcDbLine
 10
-123.5
 20
-112.5
 30
0.0
 11
-38.60317414429706
 21
-112.5
 31
0.0
  0
LINE
  5
93
330
449
100
AcDbEntity
  8
DIMNSIONS
  6
Continuous
 62
     7
100
AcDbLine
 10
-123.5
 20
-112.5
 30
0.0
 11
-115.9981323242188
 21
-110.4898806145492
 31
0.0
  0
LINE
  5
94
330
449
100
AcDbEntity
  8
DIMNSIONS
  6
Continuous
 62
     7
100
AcDbLine
 10
-123.5
 20
-112.5
 30
0.0
 11
-115.9981323242188
 21
-114.5101193854507
 31
0.0
  0
LINE
  5
95
330
449
100
AcDbEntity
  8
DIMNSIONS
  6
Continuous
 62
     7
100
AcDbLine
 10
-38.60317414429706
 20
-112.5
 30
0.0
 11
-46.10504182007831
 21
-114.5101193854507
 31
0.0
  0
LINE
  5
96
330
449
100
AcDbEntity
  8
DIMNSIONS
  6
Continuous
 62
     7
100
AcDbLine
 10
-38.60317414429706
 20
-112.5
 30
0.0
 11
-46.10504182007831
 21
-110.4898806145492
 31
0.0
  0
TEXT
  5
97
330
449
100
AcDbEntity
  8
DIMNSIONS
 62
     7
100
AcDbText
 10
-94.28075373881521
 20
-109.5183333333333
 30
0.0
 40
8.144205729166666
  1
約950
 41
0.7
 11
-94.28075373881521
 21
-101.3741276041667
 31
0.0
100
AcDbText
 73
     3
  0
LINE
  5
98
330
449
100
AcDbEntity
  8
DIMNSIONS
  6
Continuous
 62
     7
100
AcDbLine
 10
156.9343985758384
 20
-255.575
 30
0.0
 11
156.9343985758384
 21
-245.5
 31
0.0
  0
LINE
  5
99
330
449
100
AcDbEntity
  8
DIMNSIONS
  6
Continuous
 62
     7
100
AcDbLine
 10
167.1343985758385
 20
-255.575
 30
0.0
 11
167.1343985758385
 21
-245.5
 31
0.0
  0
LINE
  5
9A
330
449
100
AcDbEntity
  8
DIMNSIONS
  6
Continuous
 62
     7
100
AcDbLine
 10
167.1343985758385
 20
-250.0
 30
0.0
 11
156.9343985758384
 21
-250.0
 31
0.0
  0
LINE
  5
9B
330
449
100
AcDbEntity
  8
DIMNSIONS
  6
Continuous
 62
     7
100
AcDbLine
 10
156.9343985758384
 20
-250.0
 30
0.0
 11
141.9343985758384
 21
-250.0
 31
0.0
  0
LINE
  5
9C
330
449
100
AcDbEntity
  8
DIMNSIONS
  6
Continuous
 62
     7
100
AcDbLine
 10
156.9343985758384
 20
-250.0
 30
0.0
 11
149.4325309000572
 21
-252.0101193854507
 31
0.0
  0
LINE
  5
9D
330
449
100
AcDbEntity
  8
DIMNSIONS
  6
Continuous
 62
     7
100
AcDbLine
 10
156.9343985758384
 20
-250.0
 30
0.0
 11
149.4325309000572
 21
-247.9898806145493
 31
0.0
  0
LINE
  5
9E
330
449
100
AcDbEntity
  8
DIMNSIONS
  6
Continuous
 62
     7
100
AcDbLine
 10
167.1343985758385
 20
-250.0
 30
0.0
 11
196.1760652425054
 21
-250.0
 31
0.0
  0
LINE
  5
9F
330
449
100
AcDbEntity
  8
DIMNSIONS
  6
Continuous
 62
     7
100
AcDbLine
 10
167.1343985758385
 20
-250.0
 30
0.0
 11
174.6362662516198
 21
-247.9898806145493
 31
0.0
  0
LINE
  5
A0
330
449
100
AcDbEntity
  8
DIMNSIONS
  6
Continuous
 62
     7
100
AcDbLine
 10
167.1343985758385
 20
-250.0
 30
0.0
 11
174.6362662516198
 21
-252.0101193854507
 31
0.0
  0
TEXT
  5
A1
330
449
100
AcDbEntity
  8
DIMNSIONS
 62
     7
100
AcDbText
 10
175.0093985758387
 20
-247.0183333333333
 30
0.0
 40
8.144205729166666
  1
10.2
 41
0.7
 11
175.0093985758387
 21
-238.8741276041666
 31
0.0
100
AcDbText
 73
     3
  0
LINE
  5
A2
330
449
100
AcDbEntity
  8
DIMNSIONS
  6
Continuous
 62
     7
100
AcDbLine
 10
182.3344929690831
 20
-264.6689859381662
 30
0.0
 11
187.5
 21
-275.0
 31
0.0
  0
LINE
  5
A3
330
449
100
AcDbEntity
  8
DIMNSIONS
  6
Continuous
 62
     7
100
AcDbLine
 10
182.3344929690831
 20
-264.6689859381662
 30
0.0
 11
187.5312991110251
 21
-270.4406238765482
 31
0.0
  0
LINE
  5
A4
330
449
100
AcDbEntity
  8
DIMNSIONS
  6
Continuous
 62
     7
100
AcDbLine
 10
182.3344929690831
 20
-264.6689859381662
 30
0.0
 11
183.9492401373569
 21
-272.2657740852221
 31
0.0
  0
LINE
  5
A5
330
449
100
AcDbEntity
  8
DIMNSIONS
  6
Continuous
 62
     7
100
AcDbLine
 10
187.5
 20
-275.0
 30
0.0
 11
193.5
 21
-275.0
 31
0.0
  0
TEXT
  5
A6
330
449
100
AcDbEntity
  8
DIMNSIONS
 62
     7
100
AcDbText
 10
193.5
 20
-278.81
 30
0.0
 40
8.144205729166666
  1
φ4.9
 41
0.7
 11
193.5
 21
-270.6657942708334
 31
0.0
100
AcDbText
 73
     3
  0
TEXT
  5
A7
330
449
100
AcDbEntity
  8
DATA
 62
     7
100
AcDbText
 10
149.9999999999999
 20
-349.5436999999999
 30
0.0
 40
7.329785156249999
  1
HC81 MD
 41
0.7
 11
149.9999999999999
 21
-342.2139148437499
 31
0.0
100
AcDbText
 73
     3
  0
TEXT
  5
A8
330
449
100
AcDbEntity
  8
DATA
 62
     7
100
AcDbText
 10
149.9999999999999
 20
-327.7937
 30
0.0
 40
7.329785156249999
  1
AKG
 41
0.7
 11
149.9999999999999
 21
-320.4639148437499
 31
0.0
100
AcDbText
 73
     3
  0
TEXT
  5
A9
330
449
100
AcDbEntity
  8
DATA
 62
     7
100
AcDbText
 10
-262.5
 20
-359.3075366666667
 30
0.0
 40
5.700944010416667
  1
※仕様及び外観は予告なく変更されることがあります。
 41
0.7
 11
-262.5
 21
-353.6065926562501
 31
0.0
100
AcDbText
 73
     3
  0
TEXT
  5
AA
330
449
100
AcDbEntity
  8
DATA
 62
     7
100
AcDbText
 10
-262.5
 20
-366.7158699999999
 30
0.0
 40
5.700944010416667
  1
　また、同一商品でも若干の個体差があることがあります。ご了承ください。
 41
0.7
 11
-262.5
 21
-361.0149259895833
 31
0.0
100
AcDbText
 73
     3
  0
ARC
  5
AB
330
449
100
AcDbEntity
  8
DATA
  6
Continuous
 62
     7
100
AcDbCircle
 10
-200.0
 20
-137.4999999999976
 30
0.0
 40
4.600000000000028
100
AcDbArc
 50
76.60750224624826
 51
103.3924977537511
  0
ARC
  5
AC
330
449
100
AcDbEntity
  8
DATA
  6
Continuous
 62
     7
100
AcDbCircle
 10
-200.0
 20
-137.4999999999972
 30
0.0
 40
3.700000000000005
100
AcDbArc
 50
76.60750224624646
 51
103.3924977537527
  0
CIRCLE
  5
AD
330
449
100
AcDbEntity
  8
DATA
  6
Continuous
 62
     7
100
AcDbCircle
 10
-198.5000000000004
 20
-136.4999999999971
 30
0.0
 40
0.5
  0
CIRCLE
  5
AE
330
449
100
AcDbEntity
  8
DATA
  6
Continuous
 62
     7
100
AcDbCircle
 10
-200.0
 20
-137.4999999999977
 30
0.0
 40
5.199999999999931
  0
LINE
  5
AF
330
449
100
AcDbEntity
  8
DATA
  6
Continuous
 62
     7
100
AcDbLine
 10
-198.5
 20
-132.4688470506232
 30
0.0
 11
-198.5
 21
-131.2999999999977
 31
0.0
  0
LINE
  5
B0
330
449
100
AcDbEntity
  8
DATA
  6
Continuous
 62
     7
100
AcDbLine
 10
-201.5
 20
-131.2999999999977
 30
0.0
 11
-201.5
 21
-132.4688470506232
 31
0.0
  0
ARC
  5
B1
330
449
100
AcDbEntity
  8
DATA
  6
Continuous
 62
     7
100
AcDbCircle
 10
-200.0000000000001
 20
-137.4999999999996
 30
0.0
 40
4.200000000001889
100
AcDbArc
 50
103.3924977537425
 51
76.60750224625243
  0
ARC
  5
B2
330
449
100
AcDbEntity
  8
DATA
  6
Continuous
 62
     7
100
AcDbCircle
 10
-200.0000000000001
 20
-137.5
 30
0.0
 40
3.500000000002241
100
AcDbArc
 50
103.3924977537394
 51
76.60750224625445
  0
LINE
  5
B3
330
449
100
AcDbEntity
  8
DATA
  6
Continuous
 62
     7
100
AcDbLine
 10
-199.1893281544288
 20
-134.0951782485989
 30
0.0
 11
-198.9345455743921
 21
-133.0250914124449
 31
0.0
  0
LINE
  5
B4
330
449
100
AcDbEntity
  8
DATA
  6
Continuous
 62
     7
100
AcDbLine
 10
-201.0654544256078
 20
-133.0250914124449
 30
0.0
 11
-200.8106718455711
 21
-134.0951782485988
 31
0.0
  0
ARC
  5
B5
330
449
100
AcDbEntity
  8
DATA
  6
Continuous
 62
     7
100
AcDbCircle
 10
-200.0
 20
-131.2999999999977
 30
0.0
 40
1.500000000000028
100
AcDbArc
 50
0.0
 51
180.0
  0
CIRCLE
  5
B6
330
449
100
AcDbEntity
  8
DATA
  6
Continuous
 62
     7
100
AcDbCircle
 10
-200.0
 20
-137.4999999999977
 30
0.0
 40
5.25
  0
CIRCLE
  5
B7
330
449
100
AcDbEntity
  8
DATA
  6
Continuous
 62
     7
100
AcDbCircle
 10
-201.5000000000004
 20
-136.4999999999983
 30
0.0
 40
0.5
  0
CIRCLE
  5
B8
330
449
100
AcDbEntity
  8
DATA
  6
Continuous
 62
     7
100
AcDbCircle
 10
-200.0000000000004
 20
-139.4999999999954
 30
0.0
 40
0.5
  0
LINE
  5
B9
330
449
100
AcDbEntity
  8
DATA
  6
Continuous
 62
     7
100
AcDbLine
 10
-123.5
 20
-138.1999999999977
 30
0.0
 11
-82.11789723506891
 21
-138.1999999999977
 31
0.0
  0
LINE
  5
BA
330
449
100
AcDbEntity
  8
DATA
  6
Continuous
 62
     7
100
AcDbLine
 10
-78.99289723506891
 20
-138.1999999999977
 30
0.0
 11
-50.45959750049767
 21
-138.1999999999977
 31
0.0
  0
LINE
  5
BB
330
449
100
AcDbEntity
  8
DATA
  6
Continuous
 62
     7
100
AcDbLine
 10
-123.5
 20
-136.7999999999978
 30
0.0
 11
-80.38210276492739
 21
-136.7999999999978
 31
0.0
  0
LINE
  5
BC
330
449
100
AcDbEntity
  8
DATA
  6
Continuous
 62
     7
100
AcDbLine
 10
-77.25710276492738
 20
-136.7999999999978
 30
0.0
 11
-50.45959750049752
 21
-136.7999999999978
 31
0.0
  0
ARC
  5
BD
330
449
100
AcDbEntity
  8
DATA
  6
Continuous
 62
     7
100
AcDbCircle
 10
-79.44578040878259
 20
-140.625
 30
0.0
 40
3.608439182435157
100
AcDbArc
 50
119.9999999999999
 51
240.0000000000001
  0
ARC
  5
BE
330
449
100
AcDbEntity
  8
DATA
  6
Continuous
 62
     7
100
AcDbCircle
 10
-83.05421959121773
 20
-134.375
 30
0.0
 40
3.608439182435157
100
AcDbArc
 50
300.0
 51
60.00000000000006
  0
ARC
  5
BF
330
449
100
AcDbEntity
  8
DATA
  6
Continuous
 62
     7
100
AcDbCircle
 10
-76.32078040878259
 20
-140.625
 30
0.0
 40
3.608439182435157
100
AcDbArc
 50
119.9999999999999
 51
240.0000000000001
  0
ARC
  5
C0
330
449
100
AcDbEntity
  8
DATA
  6
Continuous
 62
     7
100
AcDbCircle
 10
-79.92921959121773
 20
-134.375
 30
0.0
 40
3.608439182435157
100
AcDbArc
 50
300.0
 51
60.00000000000006
  0
LINE
  5
C1
330
449
100
AcDbEntity
  8
DATA
  6
Continuous
 62
     7
100
AcDbLine
 10
-155.9
 20
-140.3999999999999
 30
0.0
 11
-155.9
 21
-134.5999999999999
 31
0.0
  0
LINE
  5
C2
330
449
100
AcDbEntity
  8
DATA
  6
Continuous
 62
     7
100
AcDbLine
 10
-155.9
 20
-140.3999999999999
 30
0.0
 11
-160.5
 21
-140.3999999999999
 31
0.0
  0
LINE
  5
C3
330
449
100
AcDbEntity
  8
DATA
  6
Continuous
 62
     7
100
AcDbLine
 10
-155.9
 20
-134.5999999999999
 30
0.0
 11
-160.5
 21
-134.5999999999999
 31
0.0
  0
LINE
  5
C4
330
449
100
AcDbEntity
  8
DATA
  6
Continuous
 62
     7
100
AcDbLine
 10
-123.5
 20
-138.9999999999999
 30
0.0
 11
-123.5
 21
-135.9999999999999
 31
0.0
  0
LINE
  5
C5
330
449
100
AcDbEntity
  8
DATA
  6
Continuous
 62
     7
100
AcDbLine
 10
-123.5
 20
-135.9999999999999
 30
0.0
 11
-127.74
 21
-135.6277073170731
 31
0.0
  0
LINE
  5
C6
330
449
100
AcDbEntity
  8
DATA
  6
Continuous
 62
     7
100
AcDbLine
 10
-128.52
 20
-135.559219512195
 30
0.0
 11
-130.86
 21
-135.3537560975609
 31
0.0
  0
LINE
  5
C7
330
449
100
AcDbEntity
  8
DATA
  6
Continuous
 62
     7
100
AcDbLine
 10
-131.64
 20
-135.2852682926829
 30
0.0
 11
-133.98
 21
-135.0798048780487
 31
0.0
  0
LINE
  5
C8
330
449
100
AcDbEntity
  8
DATA
  6
Continuous
 62
     7
100
AcDbLine
 10
-134.76
 20
-135.0113170731707
 30
0.0
 11
-137.1
 21
-134.8058536585365
 31
0.0
  0
LINE
  5
C9
330
449
100
AcDbEntity
  8
DATA
  6
Continuous
 62
     7
100
AcDbLine
 10
-137.88
 20
-134.7373658536584
 30
0.0
 11
-140.22
 21
-134.5319024390243
 31
0.0
  0
LINE
  5
CA
330
449
100
AcDbEntity
  8
DATA
  6
Continuous
 62
     7
100
AcDbLine
 10
-141.0
 20
-134.4634146341463
 30
0.0
 11
-144.0
 21
-134.2
 31
0.0
  0
LINE
  5
CB
330
449
100
AcDbEntity
  8
DATA
  6
Continuous
 62
     7
100
AcDbLine
 10
-144.0
 20
-140.7999999999999
 30
0.0
 11
-154.5
 21
-140.7999999999999
 31
0.0
  0
LINE
  5
CC
330
449
100
AcDbEntity
  8
DATA
  6
Continuous
 62
     7
100
AcDbLine
 10
-144.0
 20
-134.2
 30
0.0
 11
-154.5
 21
-134.2
 31
0.0
  0
LINE
  5
CD
330
449
100
AcDbEntity
  8
DATA
  6
Continuous
 62
     7
100
AcDbLine
 10
-154.5
 20
-140.7999999999999
 30
0.0
 11
-154.5
 21
-134.2
 31
0.0
  0
LINE
  5
CE
330
449
100
AcDbEntity
  8
DATA
  6
Continuous
 62
     7
100
AcDbLine
 10
-154.5
 20
-139.2
 30
0.0
 11
-155.9
 21
-139.2
 31
0.0
  0
LINE
  5
CF
330
449
100
AcDbEntity
  8
DATA
  6
Continuous
 62
     7
100
AcDbLine
 10
-154.5
 20
-135.8
 30
0.0
 11
-155.9
 21
-135.8
 31
0.0
  0
LINE
  5
D0
330
449
100
AcDbEntity
  8
DATA
  6
Continuous
 62
     7
100
AcDbLine
 10
-144.0
 20
-140.7999999999999
 30
0.0
 11
-141.0
 21
-140.5365853658536
 31
0.0
  0
LINE
  5
D1
330
449
100
AcDbEntity
  8
DATA
  6
Continuous
 62
     7
100
AcDbLine
 10
-140.22
 20
-140.4680975609756
 30
0.0
 11
-137.88
 21
-140.2626341463414
 31
0.0
  0
LINE
  5
D2
330
449
100
AcDbEntity
  8
DATA
  6
Continuous
 62
     7
100
AcDbLine
 10
-137.1
 20
-140.1941463414634
 30
0.0
 11
-134.76
 21
-139.9886829268292
 31
0.0
  0
LINE
  5
D3
330
449
100
AcDbEntity
  8
DATA
  6
Continuous
 62
     7
100
AcDbLine
 10
-133.98
 20
-139.9201951219512
 30
0.0
 11
-131.64
 21
-139.714731707317
 31
0.0
  0
LINE
  5
D4
330
449
100
AcDbEntity
  8
DATA
  6
Continuous
 62
     7
100
AcDbLine
 10
-130.86
 20
-139.646243902439
 30
0.0
 11
-128.52
 21
-139.4407804878048
 31
0.0
  0
LINE
  5
D5
330
449
100
AcDbEntity
  8
DATA
  6
Continuous
 62
     7
100
AcDbLine
 10
-127.74
 20
-139.3722926829268
 30
0.0
 11
-123.5
 21
-138.9999999999999
 31
0.0
  0
LINE
  5
D6
330
449
100
AcDbEntity
  8
DATA
  6
Continuous
 62
     7
100
AcDbLine
 10
-141.0
 20
-140.5365853658536
 30
0.0
 11
-141.0
 21
-134.4634146341463
 31
0.0
  0
LINE
  5
D7
330
449
100
AcDbEntity
  8
DATA
  6
Continuous
 62
     7
100
AcDbLine
 10
-140.22
 20
-138.4999999999999
 30
0.0
 11
-141.0
 21
-138.4999999999999
 31
0.0
  0
LINE
  5
D8
330
449
100
AcDbEntity
  8
DATA
  6
Continuous
 62
     7
100
AcDbLine
 10
-140.22
 20
-136.4999999999999
 30
0.0
 11
-141.0
 21
-136.4999999999999
 31
0.0
  0
LINE
  5
D9
330
449
100
AcDbEntity
  8
DATA
  6
Continuous
 62
     7
100
AcDbLine
 10
-140.22
 20
-140.4680975609756
 30
0.0
 11
-140.22
 21
-134.5319024390243
 31
0.0
  0
LINE
  5
DA
330
449
100
AcDbEntity
  8
DATA
  6
Continuous
 62
     7
100
AcDbLine
 10
-139.44
 20
-140.3996097560975
 30
0.0
 11
-139.44
 21
-134.6003902439024
 31
0.0
  0
LINE
  5
DB
330
449
100
AcDbEntity
  8
DATA
  6
Continuous
 62
     7
100
AcDbLine
 10
-138.66
 20
-140.3311219512195
 30
0.0
 11
-138.66
 21
-134.6688780487804
 31
0.0
  0
LINE
  5
DC
330
449
100
AcDbEntity
  8
DATA
  6
Continuous
 62
     7
100
AcDbLine
 10
-137.88
 20
-140.2626341463414
 30
0.0
 11
-137.88
 21
-134.7373658536584
 31
0.0
  0
LINE
  5
DD
330
449
100
AcDbEntity
  8
DATA
  6
Continuous
 62
     7
100
AcDbLine
 10
-137.1
 20
-138.4999999999999
 30
0.0
 11
-137.88
 21
-138.4999999999999
 31
0.0
  0
LINE
  5
DE
330
449
100
AcDbEntity
  8
DATA
  6
Continuous
 62
     7
100
AcDbLine
 10
-137.1
 20
-136.4999999999999
 30
0.0
 11
-137.88
 21
-136.4999999999999
 31
0.0
  0
LINE
  5
DF
330
449
100
AcDbEntity
  8
DATA
  6
Continuous
 62
     7
100
AcDbLine
 10
-137.1
 20
-140.1941463414634
 30
0.0
 11
-137.1
 21
-134.8058536585365
 31
0.0
  0
LINE
  5
E0
330
449
100
AcDbEntity
  8
DATA
  6
Continuous
 62
     7
100
AcDbLine
 10
-136.32
 20
-140.1256585365854
 30
0.0
 11
-136.32
 21
-134.8743414634146
 31
0.0
  0
LINE
  5
E1
330
449
100
AcDbEntity
  8
DATA
  6
Continuous
 62
     7
100
AcDbLine
 10
-135.54
 20
-140.0571707317073
 30
0.0
 11
-135.54
 21
-134.9428292682926
 31
0.0
  0
LINE
  5
E2
330
449
100
AcDbEntity
  8
DATA
  6
Continuous
 62
     7
100
AcDbLine
 10
-134.76
 20
-139.9886829268292
 30
0.0
 11
-134.76
 21
-135.0113170731707
 31
0.0
  0
LINE
  5
E3
330
449
100
AcDbEntity
  8
DATA
  6
Continuous
 62
     7
100
AcDbLine
 10
-133.98
 20
-138.4999999999999
 30
0.0
 11
-134.76
 21
-138.4999999999999
 31
0.0
  0
LINE
  5
E4
330
449
100
AcDbEntity
  8
DATA
  6
Continuous
 62
     7
100
AcDbLine
 10
-133.98
 20
-136.4999999999999
 30
0.0
 11
-134.76
 21
-136.4999999999999
 31
0.0
  0
LINE
  5
E5
330
449
100
AcDbEntity
  8
DATA
  6
Continuous
 62
     7
100
AcDbLine
 10
-133.98
 20
-139.9201951219511
 30
0.0
 11
-133.98
 21
-135.0798048780487
 31
0.0
  0
LINE
  5
E6
330
449
100
AcDbEntity
  8
DATA
  6
Continuous
 62
     7
100
AcDbLine
 10
-133.2
 20
-139.8517073170731
 30
0.0
 11
-133.2
 21
-135.1482926829268
 31
0.0
  0
LINE
  5
E7
330
449
100
AcDbEntity
  8
DATA
  6
Continuous
 62
     7
100
AcDbLine
 10
-132.42
 20
-139.7832195121951
 30
0.0
 11
-132.42
 21
-135.2167804878048
 31
0.0
  0
LINE
  5
E8
330
449
100
AcDbEntity
  8
DATA
  6
Continuous
 62
     7
100
AcDbLine
 10
-131.64
 20
-139.714731707317
 30
0.0
 11
-131.64
 21
-135.2852682926829
 31
0.0
  0
LINE
  5
E9
330
449
100
AcDbEntity
  8
DATA
  6
Continuous
 62
     7
100
AcDbLine
 10
-130.86
 20
-138.4999999999999
 30
0.0
 11
-131.64
 21
-138.4999999999999
 31
0.0
  0
LINE
  5
EA
330
449
100
AcDbEntity
  8
DATA
  6
Continuous
 62
     7
100
AcDbLine
 10
-130.86
 20
-136.4999999999999
 30
0.0
 11
-131.64
 21
-136.4999999999999
 31
0.0
  0
LINE
  5
EB
330
449
100
AcDbEntity
  8
DATA
  6
Continuous
 62
     7
100
AcDbLine
 10
-130.86
 20
-139.646243902439
 30
0.0
 11
-130.86
 21
-135.3537560975609
 31
0.0
  0
LINE
  5
EC
330
449
100
AcDbEntity
  8
DATA
  6
Continuous
 62
     7
100
AcDbLine
 10
-130.08
 20
-139.5777560975609
 30
0.0
 11
-130.08
 21
-135.422243902439
 31
0.0
  0
LINE
  5
ED
330
449
100
AcDbEntity
  8
DATA
  6
Continuous
 62
     7
100
AcDbLine
 10
-129.3
 20
-139.5092682926829
 30
0.0
 11
-129.3
 21
-135.490731707317
 31
0.0
  0
LINE
  5
EE
330
449
100
AcDbEntity
  8
DATA
  6
Continuous
 62
     7
100
AcDbLine
 10
-128.52
 20
-139.4407804878048
 30
0.0
 11
-128.52
 21
-135.559219512195
 31
0.0
  0
LINE
  5
EF
330
449
100
AcDbEntity
  8
DATA
  6
Continuous
 62
     7
100
AcDbLine
 10
-127.74
 20
-138.4999999999999
 30
0.0
 11
-128.52
 21
-138.4999999999999
 31
0.0
  0
LINE
  5
F0
330
449
100
AcDbEntity
  8
DATA
  6
Continuous
 62
     7
100
AcDbLine
 10
-127.74
 20
-136.4999999999999
 30
0.0
 11
-128.52
 21
-136.4999999999999
 31
0.0
  0
LINE
  5
F1
330
449
100
AcDbEntity
  8
DATA
  6
Continuous
 62
     7
100
AcDbLine
 10
-127.74
 20
-139.3722926829268
 30
0.0
 11
-127.74
 21
-135.6277073170731
 31
0.0
  0
LINE
  5
F2
330
449
100
AcDbEntity
  8
DATA
  6
Continuous
 62
     7
100
AcDbLine
 10
-126.96
 20
-139.3038048780487
 30
0.0
 11
-126.96
 21
-135.6961951219512
 31
0.0
  0
LINE
  5
F3
330
449
100
AcDbEntity
  8
DATA
  6
Continuous
 62
     7
100
AcDbLine
 10
-126.18
 20
-139.2353170731707
 30
0.0
 11
-126.18
 21
-135.7646829268293
 31
0.0
  0
LINE
  5
F4
330
449
100
AcDbEntity
  8
DATA
  6
Continuous
 62
     7
100
AcDbLine
 10
-125.4
 20
-139.1668292682926
 30
0.0
 11
-125.4
 21
-135.8331707317073
 31
0.0
  0
LINE
  5
F5
330
449
100
AcDbEntity
  8
DATA
  6
Continuous
 62
     7
100
AcDbLine
 10
-187.5
 20
-141.6999999999999
 30
0.0
 11
-187.5
 21
-133.3
 31
0.0
  0
LINE
  5
F6
330
449
100
AcDbEntity
  8
DATA
  6
Continuous
 62
     7
100
AcDbLine
 10
-171.0
 20
-132.3
 30
0.0
 11
-179.00002
 21
-132.3
 31
0.0
  0
LINE
  5
F7
330
449
100
AcDbEntity
  8
DATA
  6
Continuous
 62
     7
100
AcDbLine
 10
-179.00002
 20
-142.7
 30
0.0
 11
-171.0
 21
-142.7
 31
0.0
  0
LINE
  5
F8
330
449
100
AcDbEntity
  8
DATA
  6
Continuous
 62
     7
100
AcDbLine
 10
-179.00002
 20
-132.3
 30
0.0
 11
-179.00002
 21
-142.7
 31
0.0
  0
LINE
  5
F9
330
449
100
AcDbEntity
  8
DATA
  6
Continuous
 62
     7
100
AcDbLine
 10
-179.0
 20
-141.6999999999999
 30
0.0
 11
-187.5
 21
-141.6999999999999
 31
0.0
  0
LINE
  5
FA
330
449
100
AcDbEntity
  8
DATA
  6
Continuous
 62
     7
100
AcDbLine
 10
-179.00002
 20
-133.3
 30
0.0
 11
-187.5
 21
-133.3
 31
0.0
  0
LINE
  5
FB
330
449
100
AcDbEntity
  8
DATA
  6
Continuous
 62
     7
100
AcDbLine
 10
-187.5
 20
-132.8999999999999
 30
0.0
 11
-187.5
 21
-133.3
 31
0.0
  0
LINE
  5
FC
330
449
100
AcDbEntity
  8
DATA
  6
Continuous
 62
     7
100
AcDbLine
 10
-187.30012
 20
-133.3
 30
0.0
 11
-187.30012
 21
-132.9999999999999
 31
0.0
  0
LINE
  5
FD
330
449
100
AcDbEntity
  8
DATA
  6
Continuous
 62
     7
100
AcDbLine
 10
-187.5
 20
-132.8999999999999
 30
0.0
 11
-181.1245008702774
 21
-132.8999999999999
 31
0.0
  0
LINE
  5
FE
330
449
100
AcDbEntity
  8
DATA
  6
Continuous
 62
     7
100
AcDbLine
 10
-187.30012
 20
-132.9999999999999
 30
0.0
 11
-181.1245008702774
 21
-132.9999999999999
 31
0.0
  0
LINE
  5
FF
330
449
100
AcDbEntity
  8
DATA
  6
Continuous
 62
     7
100
AcDbLine
 10
-180.5
 20
-132.7
 30
0.0
 11
-181.1245008702774
 21
-132.8999999999999
 31
0.0
  0
LINE
  5
100
330
449
100
AcDbEntity
  8
DATA
  6
Continuous
 62
     7
100
AcDbLine
 10
-180.5
 20
-132.7999999999999
 30
0.0
 11
-181.1245008702774
 21
-132.9999999999999
 31
0.0
  0
LINE
  5
101
330
449
100
AcDbEntity
  8
DATA
  6
Continuous
 62
     7
100
AcDbLine
 10
-180.5
 20
-132.7
 30
0.0
 11
-179.8754991297226
 21
-132.8999999999999
 31
0.0
  0
LINE
  5
102
330
449
100
AcDbEntity
  8
DATA
  6
Continuous
 62
     7
100
AcDbLine
 10
-180.5
 20
-132.7999999999999
 30
0.0
 11
-179.9754991297
 21
-132.9679744241403
 31
0.0
  0
LINE
  5
103
330
449
100
AcDbEntity
  8
DATA
  6
Continuous
 62
     7
100
AcDbLine
 10
-179.8754991297226
 20
-132.8999999999999
 30
0.0
 11
-179.8754991297226
 21
-133.3
 31
0.0
  0
LINE
  5
104
330
449
100
AcDbEntity
  8
DATA
  6
Continuous
 62
     7
100
AcDbLine
 10
-179.9754991297
 20
-132.9679744241403
 30
0.0
 11
-179.9754991297
 21
-133.3
 31
0.0
  0
LINE
  5
105
330
449
100
AcDbEntity
  8
DATA
  6
Continuous
 62
     7
100
AcDbLine
 10
-173.4999999999999
 20
-132.3
 30
0.0
 11
-173.4999999999999
 21
-131.2999999999999
 31
0.0
  0
LINE
  5
106
330
449
100
AcDbEntity
  8
DATA
  6
Continuous
 62
     7
100
AcDbLine
 10
-176.4999999999999
 20
-131.2999999999999
 30
0.0
 11
-176.4999999999999
 21
-132.3
 31
0.0
  0
ARC
  5
107
330
449
100
AcDbEntity
  8
DATA
  6
Continuous
 62
     7
100
AcDbCircle
 10
-175.0
 20
-131.2999999999999
 30
0.0
 40
1.500000000000028
100
AcDbArc
 50
0.0
 51
180.0
  0
LINE
  5
108
330
449
100
AcDbEntity
  8
DATA
  6
Continuous
 62
     7
100
AcDbLine
 10
-171.0
 20
-142.7499999999999
 30
0.0
 11
-171.0
 21
-132.2499999999999
 31
0.0
  0
LINE
  5
109
330
449
100
AcDbEntity
  8
DATA
  6
Continuous
 62
     7
100
AcDbLine
 10
-162.0
 20
-142.7499999999999
 30
0.0
 11
-162.0
 21
-132.2499999999999
 31
0.0
  0
LINE
  5
10A
330
449
100
AcDbEntity
  8
DATA
  6
Continuous
 62
     7
100
AcDbLine
 10
-162.0
 20
-142.7499999999999
 30
0.0
 11
-171.0
 21
-142.7499999999999
 31
0.0
  0
LINE
  5
10B
330
449
100
AcDbEntity
  8
DATA
  6
Continuous
 62
     7
100
AcDbLine
 10
-162.0
 20
-132.2499999999999
 30
0.0
 11
-171.0
 21
-132.2499999999999
 31
0.0
  0
LINE
  5
10C
330
449
100
AcDbEntity
  8
DATA
  6
Continuous
 62
     7
100
AcDbLine
 10
-160.5
 20
-141.2499999999999
 30
0.0
 11
-160.5
 21
-133.7499999999999
 31
0.0
  0
LINE
  5
10D
330
449
100
AcDbEntity
  8
DATA
  6
Continuous
 62
     7
100
AcDbLine
 10
-160.5
 20
-141.2499999999999
 30
0.0
 11
-162.0
 21
-142.7499999999999
 31
0.0
  0
LINE
  5
10E
330
449
100
AcDbEntity
  8
DATA
  6
Continuous
 62
     7
100
AcDbLine
 10
-162.0
 20
-132.2499999999999
 30
0.0
 11
-160.5
 21
-133.7499999999999
 31
0.0
  0
LINE
  5
10F
330
449
100
AcDbEntity
  8
DATA
  6
Continuous
 62
     7
100
AcDbLine
 10
67.14445676261054
 20
-264.571185650762
 30
0.0
 11
56.50081365469539
 21
-265.6180947335498
 31
0.0
  0
LINE
  5
110
330
449
100
AcDbEntity
  8
DATA
  6
Continuous
 62
     7
100
AcDbLine
 10
66.70031031161703
 20
-258.4184940033831
 30
0.0
 11
68.38455634732489
 21
-262.5070557305601
 31
0.0
  0
ARC
  5
111
330
449
100
AcDbEntity
  8
DATA
  6
Continuous
 62
     7
100
AcDbCircle
 10
65.85544458232511
 20
-242.0193595103708
 30
0.0
 40
21.87850801477545
100
AcDbArc
 50
150.8368698606265
 51
238.771785637185
  0
ARC
  5
112
330
449
100
AcDbEntity
  8
DATA
  6
Continuous
 62
     7
100
AcDbCircle
 10
60.48694263863979
 20
-238.4441606826801
 30
0.0
 40
15.45663550398779
100
AcDbArc
 50
88.7818374306679
 51
152.7126317861003
  0
ARC
  5
113
330
449
100
AcDbEntity
  8
DATA
  6
Continuous
 62
     7
100
AcDbCircle
 10
63.34632212669466
 20
-240.6263227612396
 30
0.0
 40
17.81597072439231
100
AcDbArc
 50
41.24625214662243
 51
98.16656267534606
  0
ARC
  5
114
330
449
100
AcDbEntity
  8
DATA
  6
Continuous
 62
     7
100
AcDbCircle
 10
64.78867171363415
 20
-238.5205783465507
 30
0.0
 40
15.35620717270691
100
AcDbArc
 50
269.0717450519159
 51
38.88626239172046
  0
ARC
  5
115
330
449
100
AcDbEntity
  8
DATA
  6
Continuous
 62
     7
100
AcDbCircle
 10
64.78867171363415
 20
-238.5205783465507
 30
0.0
 40
13.03796562418712
100
AcDbArc
 50
269.071745051916
 51
38.88626239172026
  0
ARC
  5
116
330
449
100
AcDbEntity
  8
DATA
  6
Continuous
 62
     7
100
AcDbCircle
 10
63.34632212669466
 20
-240.6263227612396
 30
0.0
 40
15.49998940263372
100
AcDbArc
 50
41.24625214662241
 51
98.1665626753462
  0
ARC
  5
117
330
449
100
AcDbEntity
  8
DATA
  6
Continuous
 62
     7
100
AcDbCircle
 10
60.48694263863979
 20
-238.4441606826801
 30
0.0
 40
15.45663550398779
100
AcDbArc
 50
88.7818374306679
 51
152.7126317861003
  0
LINE
  5
118
330
449
100
AcDbEntity
  8
DATA
  6
Continuous
 62
     7
100
AcDbLine
 10
65.51741890377297
 20
-257.5037699058691
 30
0.0
 11
53.56848935942232
 21
-255.8631503358931
 31
0.0
  0
LINE
  5
119
330
449
100
AcDbEntity
  8
DATA
  6
Continuous
 62
     7
100
AcDbLine
 10
54.51257243317709
 20
-260.7278699898472
 30
0.0
 11
54.86118596422087
 21
-264.2721300101529
 31
0.0
  0
ARC
  5
11A
330
449
100
AcDbEntity
  8
DATA
  6
Continuous
 62
     7
100
AcDbCircle
 10
62.42927583310232
 20
-240.0296273787057
 30
0.0
 40
14.80197391058043
100
AcDbArc
 50
94.97929036196058
 51
180.5479473245037
  0
ARC
  5
11B
330
449
100
AcDbEntity
  8
DATA
  6
Continuous
 62
     7
100
AcDbCircle
 10
64.11259943911783
 20
-242.9010313652435
 30
0.0
 40
16.7091228250322
100
AcDbArc
 50
170.5971703441829
 51
230.8731717698806
  0
ARC
  5
11C
330
449
100
AcDbEntity
  8
DATA
  6
Continuous
 62
     7
100
AcDbCircle
 10
64.55867328599481
 20
-252.7158015898904
 30
0.0
 40
1.159120774259889
100
AcDbArc
 50
89.07174505191308
 51
269.0717450519173
  0
ARC
  5
11D
330
449
100
AcDbEntity
  8
DATA
  6
Continuous
 62
     7
100
AcDbCircle
 10
66.99762527907175
 20
-263.0783894438262
 30
0.0
 40
1.500000000000031
100
AcDbArc
 50
275.6175452275337
 51
22.38876904616129
  0
ARC
  5
11E
330
449
100
AcDbEntity
  8
DATA
  6
Continuous
 62
     7
100
AcDbCircle
 10
56.35398217115664
 20
-264.1252985266141
 30
0.0
 40
1.500000000000002
100
AcDbArc
 50
185.6175452275337
 51
275.6175452275328
  0
ARC
  5
11F
330
449
100
AcDbEntity
  8
DATA
  6
Continuous
 62
     7
100
AcDbCircle
 10
65.31337924336388
 20
-258.9898277166491
 30
0.0
 40
1.500000000000033
100
AcDbArc
 50
22.38876904616086
 51
82.18202186521381
  0
ARC
  5
120
330
449
100
AcDbEntity
  8
DATA
  6
Continuous
 62
     7
100
AcDbCircle
 10
-76.32078040878259
 20
-265.625
 30
0.0
 40
3.608439182435157
100
AcDbArc
 50
119.9999999999999
 51
240.0000000000001
  0
ARC
  5
121
330
449
100
AcDbEntity
  8
DATA
  6
Continuous
 62
     7
100
AcDbCircle
 10
-79.92921959121773
 20
-259.375
 30
0.0
 40
3.608439182435157
100
AcDbArc
 50
300.0
 51
60.00000000000006
  0
LINE
  5
122
330
449
100
AcDbEntity
  8
DATA
  6
Continuous
 62
     7
100
AcDbLine
 10
-78.99289723506893
 20
-263.1999999999978
 30
0.0
 11
-39.51440078624703
 21
-263.1999999999978
 31
0.0
  0
LINE
  5
123
330
449
100
AcDbEntity
  8
DATA
  6
Continuous
 62
     7
100
AcDbLine
 10
-77.25710276492738
 20
-261.7999999999977
 30
0.0
 11
-39.51440078624698
 21
-261.7999999999977
 31
0.0
  0
LINE
  5
124
330
449
100
AcDbEntity
  8
DATA
  6
Continuous
 62
     7
100
AcDbLine
 10
68.11388818006317
 20
-261.8500000000022
 30
0.0
 11
156.9343985758384
 21
-261.8500000000022
 31
0.0
  0
LINE
  5
125
330
449
100
AcDbEntity
  8
DATA
  6
Continuous
 62
     7
100
AcDbLine
 10
68.49591494674093
 20
-263.1500000000022
 30
0.0
 11
156.9343985758384
 21
-263.1500000000022
 31
0.0
  0
TEXT
  5
126
330
449
100
AcDbEntity
  8
DATA
 62
     7
100
AcDbText
 10
142.4999999999999
 20
-338.605565
 30
0.0
 40
5.700944010416667
  1
ヘッドウォーン・マイクロホン
 41
0.7
 11
142.4999999999999
 21
-332.9046209895833
 31
0.0
100
AcDbText
 73
     3
  0
ARC
  5
127
330
449
100
AcDbEntity
  8
DATA
  6
Continuous
 62
     7
100
AcDbCircle
 10
38.80086665352775
 20
-135.2806659559966
 30
0.0
 40
62.84511099537062
100
AcDbArc
 50
182.0237838208
 51
211.643721709138
  0
ARC
  5
128
330
449
100
AcDbEntity
  8
DATA
  6
Continuous
 62
     7
100
AcDbCircle
 10
38.80086665352775
 20
-135.2806659559966
 30
0.0
 40
62.84511099537061
100
AcDbArc
 50
214.2061164840921
 51
222.1702719854281
  0
ARC
  5
129
330
449
100
AcDbEntity
  8
DATA
  6
Continuous
 62
     7
100
AcDbCircle
 10
38.80086665352775
 20
-135.2806659559966
 30
0.0
 40
62.84511099537064
100
AcDbArc
 50
224.7165865784725
 51
243.3468412186694
  0
ARC
  5
12A
330
449
100
AcDbEntity
  8
DATA
  6
Continuous
 62
     7
100
AcDbCircle
 10
118.4250551334686
 20
-137.0545747584273
 30
0.0
 40
55.83983628602292
100
AcDbArc
 50
298.0429011191275
 51
305.7335359441042
  0
LINE
  5
12B
330
449
100
AcDbEntity
  8
DATA
  6
Continuous
 62
     7
100
AcDbLine
 10
150.4288069610924
 20
-181.5375424929389
 30
0.0
 11
158.1717438330056
 21
-172.5045639803246
 31
0.0
  0
LINE
  5
12C
330
449
100
AcDbEntity
  8
DATA
  6
Continuous
 62
     7
100
AcDbLine
 10
151.0364372034109
 20
-182.3821058619199
 30
0.0
 11
159.2029789800884
 21
-173.3511013604654
 31
0.0
  0
ARC
  5
12D
330
449
100
AcDbEntity
  8
DATA
  6
Continuous
 62
     7
100
AcDbCircle
 10
34.03890322561623
 20
-139.5665198080367
 30
0.0
 40
58.64863356637128
100
AcDbArc
 50
224.8423919957588
 51
224.8806985861972
  0
ARC
  5
12E
330
449
100
AcDbEntity
  8
DATA
  6
Continuous
 62
     7
100
AcDbCircle
 10
39.43098440977374
 20
-135.2563753070912
 30
0.0
 40
68.10779452489713
100
AcDbArc
 50
218.8081482240238
 51
221.6872463025458
  0
ARC
  5
12F
330
449
100
AcDbEntity
  8
DATA
  6
Continuous
 62
     7
100
AcDbCircle
 10
39.43098440977374
 20
-135.2563753070912
 30
0.0
 40
67.20130757454157
100
AcDbArc
 50
218.8245509912381
 51
221.7080916170327
  0
LINE
  5
130
330
449
100
AcDbEntity
  8
DATA
  6
Continuous
 62
     7
100
AcDbLine
 10
-10.07865876034967
 20
-183.059141011454
 30
0.0
 11
-5.439046444457211
 21
-179.1463687250045
 31
0.0
  0
LINE
  5
131
330
449
100
AcDbEntity
  8
DATA
  6
Continuous
 62
     7
100
AcDbLine
 10
-11.98114444185615
 20
-181.016403561445
 30
0.0
 11
-7.341532125963788
 21
-177.1036312749954
 31
0.0
  0
LINE
  5
132
330
449
100
AcDbEntity
  8
DATA
  6
Continuous
 62
     7
100
AcDbLine
 10
-5.439046444457211
 20
-179.1463687250045
 30
0.0
 11
-7.341532125963788
 21
-177.1036312749954
 31
0.0
  0
LINE
  5
133
330
449
100
AcDbEntity
  8
DATA
  6
Continuous
 62
     7
100
AcDbLine
 10
-10.07865876034967
 20
-183.059141011454
 30
0.0
 11
-11.98114444185615
 21
-181.016403561445
 31
0.0
  0
LINE
  5
134
330
449
100
AcDbEntity
  8
DATA
  6
Continuous
 62
     7
100
AcDbLine
 10
-20.17909480318355
 20
-165.3049387767802
 30
0.0
 11
-11.63854642460099
 21
-176.3981363948293
 31
0.0
  0
LINE
  5
135
330
449
100
AcDbEntity
  8
DATA
  6
Continuous
 62
     7
100
AcDbLine
 10
-23.46743552567666
 20
-167.83660133186
 30
0.0
 11
-14.92688714709411
 21
-178.9297989499091
 31
0.0
  0
LINE
  5
136
330
449
100
AcDbEntity
  8
DATA
  6
Continuous
 62
     7
100
AcDbLine
 10
-20.17909480318355
 20
-165.3049387767802
 30
0.0
 11
-22.56151885591373
 21
-162.4065146049215
 31
0.0
  0
LINE
  5
137
330
449
100
AcDbEntity
  8
DATA
  6
Continuous
 62
     7
100
AcDbLine
 10
-23.11741780155077
 20
-161.7302156314877
 30
0.0
 11
-24.78511463846194
 21
-159.7013187111867
 31
0.0
  0
LINE
  5
138
330
449
100
AcDbEntity
  8
DATA
  6
Continuous
 62
     7
100
AcDbLine
 10
-25.34101358409897
 20
-159.025019737753
 30
0.0
 11
-27.0087104210101
 21
-156.9961228174519
 31
0.0
  0
LINE
  5
139
330
449
100
AcDbEntity
  8
DATA
  6
Continuous
 62
     7
100
AcDbLine
 10
-27.56460936664716
 20
-156.3198238440181
 30
0.0
 11
-29.23230620355831
 21
-154.2909269237171
 31
0.0
  0
LINE
  5
13A
330
449
100
AcDbEntity
  8
DATA
  6
Continuous
 62
     7
100
AcDbLine
 10
-29.78820514919537
 20
-153.6146279502834
 30
0.0
 11
-31.4559019861065
 21
-151.5857310299823
 31
0.0
  0
LINE
  5
13B
330
449
100
AcDbEntity
  8
DATA
  6
Continuous
 62
     7
100
AcDbLine
 10
-32.01180093174354
 20
-150.9094320565486
 30
0.0
 11
-33.67949776865466
 21
-148.8805351362474
 31
0.0
  0
LINE
  5
13C
330
449
100
AcDbEntity
  8
DATA
  6
Continuous
 62
     7
100
AcDbLine
 10
-34.2353967142917
 20
-148.2042361628138
 30
0.0
 11
-35.90309355120285
 21
-146.1753392425127
 31
0.0
  0
LINE
  5
13D
330
449
100
AcDbEntity
  8
DATA
  6
Continuous
 62
     7
100
AcDbLine
 10
-36.45899249683991
 20
-145.499040269079
 30
0.0
 11
-38.60317414429706
 21
-142.8904585144061
 31
0.0
  0
LINE
  5
13E
330
449
100
AcDbEntity
  8
DATA
  6
Continuous
 62
     7
100
AcDbLine
 10
-23.46743552567666
 20
-167.83660133186
 30
0.0
 11
-25.66030524718713
 21
-164.7922410654781
 31
0.0
  0
LINE
  5
13F
330
449
100
AcDbEntity
  8
DATA
  6
Continuous
 62
     7
100
AcDbLine
 10
-26.17197484887292
 20
-164.0818903366556
 30
0.0
 11
-27.70698365393025
 21
-161.9508381501883
 31
0.0
  0
LINE
  5
140
330
449
100
AcDbEntity
  8
DATA
  6
Continuous
 62
     7
100
AcDbLine
 10
-28.21865325561598
 20
-161.2404874213659
 30
0.0
 11
-29.75366206067333
 21
-159.1094352348985
 31
0.0
  0
LINE
  5
141
330
449
100
AcDbEntity
  8
DATA
  6
Continuous
 62
     7
100
AcDbLine
 10
-30.26533166235908
 20
-158.3990845060761
 30
0.0
 11
-31.80034046741641
 21
-156.2680323196087
 31
0.0
  0
LINE
  5
142
330
449
100
AcDbEntity
  8
DATA
  6
Continuous
 62
     7
100
AcDbLine
 10
-32.31201006910217
 20
-155.5576815907863
 30
0.0
 11
-33.8470188741595
 21
-153.426629404319
 31
0.0
  0
LINE
  5
143
330
449
100
AcDbEntity
  8
DATA
  6
Continuous
 62
     7
100
AcDbLine
 10
-34.35868847584529
 20
-152.7162786754965
 30
0.0
 11
-35.8936972809026
 21
-150.5852264890292
 31
0.0
  0
LINE
  5
144
330
449
100
AcDbEntity
  8
DATA
  6
Continuous
 62
     7
100
AcDbLine
 10
-36.40536688258839
 20
-149.8748757602068
 30
0.0
 11
-37.94037568764568
 21
-147.7438235737395
 31
0.0
  0
LINE
  5
145
330
449
100
AcDbEntity
  8
DATA
  6
Continuous
 62
     7
100
AcDbLine
 10
-38.45204528933146
 20
-147.033472844917
 30
0.0
 11
-40.42562803869086
 21
-144.2935486051733
 31
0.0
  0
LINE
  5
146
330
449
100
AcDbEntity
  8
DATA
  6
Continuous
 62
     7
100
AcDbLine
 10
-21.44972096463965
 20
-163.7591125517889
 30
0.0
 11
-24.63696604381561
 21
-166.212942523123
 31
0.0
  0
LINE
  5
147
330
449
100
AcDbEntity
  8
DATA
  6
Continuous
 62
     7
100
AcDbLine
 10
-23.31854079311837
 20
-162.989338665301
 30
0.0
 11
-23.85232506677979
 21
-162.296013814173
 31
0.0
  0
LINE
  5
148
330
449
100
AcDbEntity
  8
DATA
  6
Continuous
 62
     7
100
AcDbLine
 10
-24.90328330998252
 20
-164.2094170050985
 30
0.0
 11
-25.43706758364395
 21
-163.5160921539704
 31
0.0
  0
LINE
  5
149
330
449
100
AcDbEntity
  8
DATA
  6
Continuous
 62
     7
100
AcDbLine
 10
-34.79129565992875
 20
-147.5279371893801
 30
0.0
 11
-36.91703648427413
 21
-149.1645250313843
 31
0.0
  0
LINE
  5
14A
330
449
100
AcDbEntity
  8
DATA
  6
Continuous
 62
     7
100
AcDbLine
 10
-23.67331674718782
 20
-161.053916658054
 30
0.0
 11
-26.68364445055869
 21
-163.3715396078332
 31
0.0
  0
LINE
  5
14B
330
449
100
AcDbEntity
  8
DATA
  6
Continuous
 62
     7
100
AcDbLine
 10
-25.89691252973604
 20
-158.3487207643193
 30
0.0
 11
-28.73032285730177
 21
-160.5301366925434
 31
0.0
  0
LINE
  5
14C
330
449
100
AcDbEntity
  8
DATA
  6
Continuous
 62
     7
100
AcDbLine
 10
-28.1205083122842
 20
-155.6435248705844
 30
0.0
 11
-30.77700126404488
 21
-157.6887337772537
 31
0.0
  0
LINE
  5
14D
330
449
100
AcDbEntity
  8
DATA
  6
Continuous
 62
     7
100
AcDbLine
 10
-30.3441040948324
 20
-152.9383289768497
 30
0.0
 11
-32.82367967078795
 21
-154.8473308619639
 31
0.0
  0
LINE
  5
14E
330
449
100
AcDbEntity
  8
DATA
  6
Continuous
 62
     7
100
AcDbLine
 10
-32.56769987738057
 20
-150.2331330831149
 30
0.0
 11
-34.87035807753104
 21
-152.0059279466741
 31
0.0
  0
LINE
  5
14F
330
449
100
AcDbEntity
  8
DATA
  6
Continuous
 62
     7
100
AcDbLine
 10
-22.00561991027671
 20
-163.0828135783551
 30
0.0
 11
-25.14863564550135
 21
-165.5025917943005
 31
0.0
  0
LINE
  5
150
330
449
100
AcDbEntity
  8
DATA
  6
Continuous
 62
     7
100
AcDbLine
 10
-22.56151885591373
 20
-162.4065146049215
 30
0.0
 11
-25.66030524718713
 21
-164.7922410654781
 31
0.0
  0
LINE
  5
151
330
449
100
AcDbEntity
  8
DATA
  6
Continuous
 62
     7
100
AcDbLine
 10
-23.11741780155077
 20
-161.7302156314877
 30
0.0
 11
-26.17197484887292
 21
-164.0818903366556
 31
0.0
  0
LINE
  5
152
330
449
100
AcDbEntity
  8
DATA
  6
Continuous
 62
     7
100
AcDbLine
 10
-25.45367788776398
 20
-160.2160392607887
 30
0.0
 11
-25.98746216142539
 21
-159.5227144096607
 31
0.0
  0
LINE
  5
153
330
449
100
AcDbEntity
  8
DATA
  6
Continuous
 62
     7
100
AcDbLine
 10
-27.03842040462814
 20
-161.4361176005862
 30
0.0
 11
-27.57220467828957
 21
-160.7427927494581
 31
0.0
  0
LINE
  5
154
330
449
100
AcDbEntity
  8
DATA
  6
Continuous
 62
     7
100
AcDbLine
 10
-24.22921569282492
 20
-160.3776176846204
 30
0.0
 11
-27.19531405224448
 21
-162.6611888790108
 31
0.0
  0
LINE
  5
155
330
449
100
AcDbEntity
  8
DATA
  6
Continuous
 62
     7
100
AcDbLine
 10
-24.78511463846194
 20
-159.7013187111867
 30
0.0
 11
-27.70698365393022
 21
-161.9508381501883
 31
0.0
  0
LINE
  5
156
330
449
100
AcDbEntity
  8
DATA
  6
Continuous
 62
     7
100
AcDbLine
 10
-25.34101358409893
 20
-159.025019737753
 30
0.0
 11
-28.21865325561598
 21
-161.2404874213659
 31
0.0
  0
LINE
  5
157
330
449
100
AcDbEntity
  8
DATA
  6
Continuous
 62
     7
100
AcDbLine
 10
-27.58881498240966
 20
-157.4427398562764
 30
0.0
 11
-28.12259925607105
 21
-156.7494150051484
 31
0.0
  0
LINE
  5
158
330
449
100
AcDbEntity
  8
DATA
  6
Continuous
 62
     7
100
AcDbLine
 10
-29.17355749927382
 20
-158.662818196074
 30
0.0
 11
-29.70734177293521
 21
-157.9694933449459
 31
0.0
  0
LINE
  5
159
330
449
100
AcDbEntity
  8
DATA
  6
Continuous
 62
     7
100
AcDbLine
 10
-26.45281147537309
 20
-157.6724217908856
 30
0.0
 11
-29.24199245898755
 21
-159.819785963721
 31
0.0
  0
LINE
  5
15A
330
449
100
AcDbEntity
  8
DATA
  6
Continuous
 62
     7
100
AcDbLine
 10
-27.00871042101012
 20
-156.9961228174519
 30
0.0
 11
-29.75366206067333
 21
-159.1094352348985
 31
0.0
  0
LINE
  5
15B
330
449
100
AcDbEntity
  8
DATA
  6
Continuous
 62
     7
100
AcDbLine
 10
-27.5646093666472
 20
-156.3198238440182
 30
0.0
 11
-30.26533166235908
 21
-158.3990845060761
 31
0.0
  0
LINE
  5
15C
330
449
100
AcDbEntity
  8
DATA
  6
Continuous
 62
     7
100
AcDbLine
 10
-29.72395207705528
 20
-154.6694404517642
 30
0.0
 11
-30.25773635071669
 21
-153.9761156006361
 31
0.0
  0
LINE
  5
15D
330
449
100
AcDbEntity
  8
DATA
  6
Continuous
 62
     7
100
AcDbLine
 10
-31.30869459391945
 20
-155.8895187915617
 30
0.0
 11
-31.84247886758085
 21
-155.1961939404336
 31
0.0
  0
LINE
  5
15E
330
449
100
AcDbEntity
  8
DATA
  6
Continuous
 62
     7
100
AcDbLine
 10
-28.67640725792128
 20
-154.9672258971508
 30
0.0
 11
-31.28867086573065
 21
-156.9783830484312
 31
0.0
  0
LINE
  5
15F
330
449
100
AcDbEntity
  8
DATA
  6
Continuous
 62
     7
100
AcDbLine
 10
-29.23230620355833
 20
-154.2909269237171
 30
0.0
 11
-31.80034046741641
 21
-156.2680323196087
 31
0.0
  0
LINE
  5
160
330
449
100
AcDbEntity
  8
DATA
  6
Continuous
 62
     7
100
AcDbLine
 10
-29.78820514919537
 20
-153.6146279502834
 30
0.0
 11
-32.31201006910217
 21
-155.5576815907863
 31
0.0
  0
LINE
  5
161
330
449
100
AcDbEntity
  8
DATA
  6
Continuous
 62
     7
100
AcDbLine
 10
-31.85908917170093
 20
-151.8961410472519
 30
0.0
 11
-32.39287344536232
 21
-151.2028161961238
 31
0.0
  0
LINE
  5
162
330
449
100
AcDbEntity
  8
DATA
  6
Continuous
 62
     7
100
AcDbLine
 10
-33.44383168856509
 20
-153.1162193870494
 30
0.0
 11
-33.97761596222651
 21
-152.4228945359214
 31
0.0
  0
LINE
  5
163
330
449
100
AcDbEntity
  8
DATA
  6
Continuous
 62
     7
100
AcDbLine
 10
-30.90000304046947
 20
-152.262030003416
 30
0.0
 11
-33.33534927247373
 21
-154.1369801331414
 31
0.0
  0
LINE
  5
164
330
449
100
AcDbEntity
  8
DATA
  6
Continuous
 62
     7
100
AcDbLine
 10
-31.4559019861065
 20
-151.5857310299823
 30
0.0
 11
-33.8470188741595
 21
-153.426629404319
 31
0.0
  0
LINE
  5
165
330
449
100
AcDbEntity
  8
DATA
  6
Continuous
 62
     7
100
AcDbLine
 10
-32.01180093174354
 20
-150.9094320565486
 30
0.0
 11
-34.35868847584531
 21
-152.7162786754966
 31
0.0
  0
LINE
  5
166
330
449
100
AcDbEntity
  8
DATA
  6
Continuous
 62
     7
100
AcDbLine
 10
-33.99422626634655
 20
-149.1228416427396
 30
0.0
 11
-34.52801054000796
 21
-148.4295167916115
 31
0.0
  0
LINE
  5
167
330
449
100
AcDbEntity
  8
DATA
  6
Continuous
 62
     7
100
AcDbLine
 10
-35.57896878321072
 20
-150.3429199825371
 30
0.0
 11
-36.11275305687214
 21
-149.649595131409
 31
0.0
  0
LINE
  5
168
330
449
100
AcDbEntity
  8
DATA
  6
Continuous
 62
     7
100
AcDbLine
 10
-33.12359882301763
 20
-149.5568341096811
 30
0.0
 11
-35.38202767921681
 21
-151.2955772178517
 31
0.0
  0
LINE
  5
169
330
449
100
AcDbEntity
  8
DATA
  6
Continuous
 62
     7
100
AcDbLine
 10
-33.67949776865466
 20
-148.8805351362474
 30
0.0
 11
-35.89369728090258
 21
-150.5852264890292
 31
0.0
  0
LINE
  5
16A
330
449
100
AcDbEntity
  8
DATA
  6
Continuous
 62
     7
100
AcDbLine
 10
-34.2353967142917
 20
-148.2042361628138
 30
0.0
 11
-36.40536688258837
 21
-149.8748757602068
 31
0.0
  0
LINE
  5
16B
330
449
100
AcDbEntity
  8
DATA
  6
Continuous
 62
     7
100
AcDbLine
 10
-36.12936336099219
 20
-146.3495422382273
 30
0.0
 11
-36.66314763465359
 21
-145.6562173870993
 31
0.0
  0
LINE
  5
16C
330
449
100
AcDbEntity
  8
DATA
  6
Continuous
 62
     7
100
AcDbLine
 10
-37.71410587785635
 20
-147.5696205780248
 30
0.0
 11
-38.24789015151776
 21
-146.8762957268967
 31
0.0
  0
LINE
  5
16D
330
449
100
AcDbEntity
  8
DATA
  6
Continuous
 62
     7
100
AcDbLine
 10
-35.3471946055658
 20
-146.8516382159464
 30
0.0
 11
-37.42870608595991
 21
-148.4541743025619
 31
0.0
  0
LINE
  5
16E
330
449
100
AcDbEntity
  8
DATA
  6
Continuous
 62
     7
100
AcDbLine
 10
-35.90309355120285
 20
-146.1753392425127
 30
0.0
 11
-37.94037568764568
 21
-147.7438235737395
 31
0.0
  0
LINE
  5
16F
330
449
100
AcDbEntity
  8
DATA
  6
Continuous
 62
     7
100
AcDbLine
 10
-36.45899249683991
 20
-145.499040269079
 30
0.0
 11
-38.45204528933146
 21
-147.033472844917
 31
0.0
  0
LINE
  5
170
330
449
100
AcDbEntity
  8
DATA
  6
Continuous
 62
     7
100
AcDbLine
 10
-38.60317414429706
 20
-142.8904585144061
 30
0.0
 11
-40.42562803869086
 21
-144.2935486051733
 31
0.0
  0
LINE
  5
171
330
449
100
AcDbEntity
  8
DATA
  6
Continuous
 62
     7
100
AcDbLine
 10
-11.63854642459923
 20
-176.3981363948279
 30
0.0
 11
-14.92688714709238
 21
-178.9297989499078
 31
0.0
  0
ARC
  5
172
330
449
100
AcDbEntity
  8
DATA
  6
Continuous
 62
     7
100
AcDbCircle
 10
41.86829851806556
 20
-128.908969570158
 30
0.0
 40
74.21495629205222
100
AcDbArc
 50
226.2562558887216
 51
245.168140037229
  0
ARC
  5
173
330
449
100
AcDbEntity
  8
DATA
  6
Continuous
 62
     7
100
AcDbCircle
 10
41.86829851806556
 20
-128.908969570158
 30
0.0
 40
73.31032011914055
100
AcDbArc
 50
226.3318091363821
 51
245.166996939005
  0
ARC
  5
174
330
449
100
AcDbEntity
  8
DATA
  6
Continuous
 62
     7
100
AcDbCircle
 10
66.9221615576655
 20
-50.04239344790364
 30
0.0
 40
156.9155619816975
100
AcDbArc
 50
249.9946372025299
 51
259.1504039004234
  0
ARC
  5
175
330
449
100
AcDbEntity
  8
DATA
  6
Continuous
 62
     7
100
AcDbCircle
 10
66.9221615576655
 20
-50.04239344790364
 30
0.0
 40
156.9155619816975
100
AcDbArc
 50
259.3768160928359
 51
299.7041376517475
  0
ARC
  5
176
330
449
100
AcDbEntity
  8
DATA
  6
Continuous
 62
     7
100
AcDbCircle
 10
66.9221615576655
 20
-50.04239344790364
 30
0.0
 40
156.0131091605148
100
AcDbArc
 50
250.0249778721264
 51
259.2583813592973
  0
ARC
  5
177
330
449
100
AcDbEntity
  8
DATA
  6
Continuous
 62
     7
100
AcDbCircle
 10
66.9221615576655
 20
-50.04239344790364
 30
0.0
 40
156.0131091605148
100
AcDbArc
 50
259.4862453853433
 51
299.7041376517474
  0
ARC
  5
178
330
449
100
AcDbEntity
  8
DATA
  6
Continuous
 62
     7
100
AcDbCircle
 10
2.837539574103846
 20
39.41617102275813
 30
0.0
 40
265.7136159952559
100
AcDbArc
 50
302.1490428106361
 51
303.741881056142
  0
ARC
  5
179
330
449
100
AcDbEntity
  8
DATA
  6
Continuous
 62
     7
100
AcDbCircle
 10
-50.98032574058193
 20
-151.3119330951151
 30
0.0
 40
14.52127267346716
100
AcDbArc
 50
34.12747540467981
 51
87.94495089104371
  0
ARC
  5
17A
330
449
100
AcDbEntity
  8
DATA
  6
Continuous
 62
     7
100
AcDbCircle
 10
-50.98032574058193
 20
-151.3119330951151
 30
0.0
 40
13.12226914031472
100
AcDbArc
 50
33.7575507185723
 51
87.94495089104371
  0
ARC
  5
17B
330
449
100
AcDbEntity
  8
DATA
  6
Continuous
 62
     7
100
AcDbCircle
 10
11.48769843696528
 20
-192.8904977800413
 30
0.0
 40
1.689122088116783
100
AcDbArc
 50
75.91929748668275
 51
229.0795594271116
  0
LINE
  5
17C
330
449
100
AcDbEntity
  8
DATA
  6
Continuous
 62
     7
100
AcDbLine
 10
15.05946687573256
 20
-196.3225147377953
 30
0.0
 11
10.38130585715222
 21
-194.1668319400084
 31
0.0
  0
LINE
  5
17D
330
449
100
AcDbEntity
  8
DATA
  6
Continuous
 62
     7
100
AcDbLine
 10
16.28934297906074
 20
-193.2753490275872
 30
0.0
 11
11.89864214675428
 21
-191.2521270356892
 31
0.0
  0
ARC
  5
17E
330
449
100
AcDbEntity
  8
DATA
  6
Continuous
 62
     7
100
AcDbCircle
 10
15.31087791188303
 20
-194.6522076045213
 30
0.0
 40
1.689122088116778
100
AcDbArc
 50
261.4402189562318
 51
54.60048089666678
  0
LINE
  5
17F
330
449
100
AcDbEntity
  8
DATA
  6
Continuous
 62
     7
100
AcDbLine
 10
11.44165261493176
 20
-194.655436598197
 30
0.0
 11
10.27905279817767
 21
-197.1784558237209
 31
0.0
  0
LINE
  5
180
330
449
100
AcDbEntity
  8
DATA
  6
Continuous
 62
     7
100
AcDbLine
 10
12.83652030119891
 20
-198.3569293051307
 30
0.0
 11
10.27905279817767
 21
-197.1784558237209
 31
0.0
  0
LINE
  5
181
330
449
100
AcDbEntity
  8
DATA
  6
Continuous
 62
     7
100
AcDbLine
 10
13.99912011795301
 20
-195.8339100796068
 30
0.0
 11
12.83652030119891
 21
-198.3569293051307
 31
0.0
  0
ARC
  5
182
330
449
100
AcDbEntity
  8
DATA
  6
Continuous
 62
     7
100
AcDbCircle
 10
63.48665459701867
 20
-200.4617591465065
 30
0.0
 40
2.50000000000006
100
AcDbArc
 50
273.7899977994704
 51
318.788278667902
  0
ARC
  5
183
330
449
100
AcDbEntity
  8
DATA
  6
Continuous
 62
     7
100
AcDbCircle
 10
63.48665459701867
 20
-200.4617591465065
 30
0.0
 40
2.499999999999959
100
AcDbArc
 50
32.44681178716494
 51
77.44509265559596
  0
ARC
  5
184
330
449
100
AcDbEntity
  8
DATA
  6
Continuous
 62
     7
100
AcDbCircle
 10
55.52579443961852
 20
-225.2803028652033
 30
0.0
 40
28.55456709916285
100
AcDbArc
 50
72.67291423440603
 51
82.21727107677995
  0
ARC
  5
185
330
449
100
AcDbEntity
  8
DATA
  6
Continuous
 62
     7
100
AcDbCircle
 10
59.40062614503268
 20
-174.7199686444433
 30
0.0
 40
28.55456709916293
100
AcDbArc
 50
269.017819378288
 51
278.5621762206619
  0
ARC
  5
186
330
449
100
AcDbEntity
  8
DATA
  6
Continuous
 62
     7
100
AcDbCircle
 10
54.81707088670407
 20
-199.7973415086247
 30
0.0
 40
2.499999999999984
100
AcDbArc
 50
93.78999779947342
 51
133.1977311139757
  0
ARC
  5
187
330
449
100
AcDbEntity
  8
DATA
  6
Continuous
 62
     7
100
AcDbCircle
 10
54.81707088670407
 20
-199.7973415086247
 30
0.0
 40
2.500000000000048
100
AcDbArc
 50
218.0373593410931
 51
257.445092655596
  0
ARC
  5
188
330
449
100
AcDbEntity
  8
DATA
  6
Continuous
 62
     7
100
AcDbCircle
 10
58.90309933869001
 20
-225.5391320106879
 30
0.0
 40
28.55456709916288
100
AcDbArc
 50
89.01781937828804
 51
98.56217622066195
  0
ARC
  5
189
330
449
100
AcDbEntity
  8
DATA
  6
Continuous
 62
     7
100
AcDbCircle
 10
62.77793104410415
 20
-174.9787977899279
 30
0.0
 40
28.55456709916291
100
AcDbArc
 50
252.672914234406
 51
262.2172710767799
  0
ARC
  5
18A
330
449
100
AcDbEntity
  8
DATA
  6
Continuous
 62
     7
100
AcDbCircle
 10
78.70380094264818
 20
-201.6279674407104
 30
0.0
 40
1.299999999999987
100
AcDbArc
 50
265.6175452275338
 51
85.617545227534
  0
ARC
  5
18B
330
449
100
AcDbEntity
  8
DATA
  6
Continuous
 62
     7
100
AcDbCircle
 10
45.41281101246998
 20
-199.0766199214704
 30
0.0
 40
1.799798366599582
100
AcDbArc
 50
84.75959527048363
 51
266.4754951845848
  0
LINE
  5
18C
330
449
100
AcDbEntity
  8
DATA
  6
Continuous
 62
     7
100
AcDbLine
 10
78.80313875922379
 20
-200.3317683826186
 30
0.0
 11
45.57719532786745
 21
-197.2843442849497
 31
0.0
  0
LINE
  5
18D
330
449
100
AcDbEntity
  8
DATA
  6
Continuous
 62
     7
100
AcDbLine
 10
78.6044631260726
 20
-202.9241664988022
 30
0.0
 11
45.30216764130875
 21
-200.8730141445832
 31
0.0
  0
ARC
  5
18E
330
449
100
AcDbEntity
  8
DATA
  6
Continuous
 62
     7
100
AcDbCircle
 10
51.93701683713454
 20
-106.6613325788789
 30
0.0
 40
95.78236949266658
100
AcDbArc
 50
248.3729099338869
 51
260.7477964384465
  0
ARC
  5
18F
330
449
100
AcDbEntity
  8
DATA
  6
Continuous
 62
     7
100
AcDbCircle
 10
51.93701683713454
 20
-106.6613325788789
 30
0.0
 40
95.10565244316568
100
AcDbArc
 50
248.4096233321764
 51
261.026921712888
  0
LINE
  5
190
330
449
100
AcDbEntity
  8
DATA
  6
Continuous
 62
     7
100
AcDbLine
 10
36.98619494688973
 20
-204.9712615257205
 30
0.0
 11
36.87711096010429
 21
-204.0546933678188
 31
0.0
  0
LINE
  5
191
330
449
100
AcDbEntity
  8
DATA
  6
Continuous
 62
     7
100
AcDbLine
 10
36.76504766639776
 20
-203.1130918577555
 30
0.0
 11
36.53707720568847
 21
-201.1975910460804
 31
0.0
  0
LINE
  5
192
330
449
100
AcDbEntity
  8
DATA
  6
Continuous
 62
     7
100
AcDbLine
 10
37.54675763483151
 20
-205.0807459117641
 30
0.0
 11
40.16846538298607
 21
-200.3295433406483
 31
0.0
  0
LINE
  5
193
330
449
100
AcDbEntity
  8
DATA
  6
Continuous
 62
     7
100
AcDbLine
 10
37.41720169786097
 20
-203.2401335539575
 30
0.0
 11
37.10335397147823
 21
-200.6030569223691
 31
0.0
  0
LINE
  5
194
330
449
100
AcDbEntity
  8
DATA
  6
Continuous
 62
     7
100
AcDbLine
 10
36.97697229628106
 20
-204.8937690529161
 30
0.0
 11
39.8555759608311
 21
-199.6770056124231
 31
0.0
  0
LINE
  5
195
330
449
100
AcDbEntity
  8
DATA
  6
Continuous
 62
     7
100
AcDbLine
 10
42.08095360678898
 20
-199.1923587497329
 30
0.0
 11
43.62833202281542
 21
-199.310946394358
 31
0.0
  0
LINE
  5
196
330
449
100
AcDbEntity
  8
DATA
  6
Continuous
 62
     7
100
AcDbLine
 10
42.19732432044395
 20
-198.4591071851227
 30
0.0
 11
43.68487816455846
 21
-198.5731100074441
 31
0.0
  0
ARC
  5
197
330
449
100
AcDbEntity
  8
DATA
  6
Continuous
 62
     7
100
AcDbCircle
 10
41.8195971804806
 20
-200.5931021151068
 30
0.0
 40
2.167166849474804
100
AcDbArc
 50
79.96234459859786
 51
154.9938092488833
  0
ARC
  5
198
330
449
100
AcDbEntity
  8
DATA
  6
Continuous
 62
     7
100
AcDbCircle
 10
41.88487466290615
 20
-201.0393775588762
 30
0.0
 40
1.857397489382113
100
AcDbArc
 50
83.94019423290878
 51
157.532083981459
  0
ARC
  5
199
330
449
100
AcDbEntity
  8
DATA
  6
Continuous
 62
     7
100
AcDbCircle
 10
37.28409262198032
 20
-204.9358076800104
 30
0.0
 40
0.3000000000000148
100
AcDbArc
 50
186.7870471506258
 51
331.110139997398
  0
ARC
  5
19A
330
449
100
AcDbEntity
  8
DATA
  6
Continuous
 62
     7
100
AcDbCircle
 10
38.80086665352775
 20
-139.7193340440033
 30
0.0
 40
64.83885997337684
100
AcDbArc
 50
116.521593555395
 51
178.1007060365445
  0
ARC
  5
19B
330
449
100
AcDbEntity
  8
DATA
  6
Continuous
 62
     7
100
AcDbCircle
 10
38.80086665352775
 20
-139.7193340440033
 30
0.0
 40
62.84511099537064
100
AcDbArc
 50
116.6531587813305
 51
177.9762161792
  0
ARC
  5
19C
330
449
100
AcDbEntity
  8
DATA
  6
Continuous
 62
     7
100
AcDbCircle
 10
11.48769843696528
 20
-82.10950221995867
 30
0.0
 40
1.689122088116861
100
AcDbArc
 50
130.9204405728886
 51
284.0807025133172
  0
LINE
  5
19D
330
449
100
AcDbEntity
  8
DATA
  6
Continuous
 62
     7
100
AcDbLine
 10
15.05946687573256
 20
-78.67748526220466
 30
0.0
 11
10.38130585715222
 21
-80.83316805999158
 31
0.0
  0
LINE
  5
19E
330
449
100
AcDbEntity
  8
DATA
  6
Continuous
 62
     7
100
AcDbLine
 10
16.28934297906074
 20
-81.72465097241277
 30
0.0
 11
11.89864214675428
 21
-83.74787296431078
 31
0.0
  0
ARC
  5
19F
330
449
100
AcDbEntity
  8
DATA
  6
Continuous
 62
     7
100
AcDbCircle
 10
15.31087791188303
 20
-80.34779239547866
 30
0.0
 40
1.689122088116825
100
AcDbArc
 50
305.3995191033333
 51
98.5597810437682
  0
LINE
  5
1A0
330
449
100
AcDbEntity
  8
DATA
  6
Continuous
 62
     7
100
AcDbLine
 10
11.44165261493176
 20
-80.34456340180303
 30
0.0
 11
10.27905279817767
 21
-77.82154417627909
 31
0.0
  0
LINE
  5
1A1
330
449
100
AcDbEntity
  8
DATA
  6
Continuous
 62
     7
100
AcDbLine
 10
12.83652030119891
 20
-76.6430706948693
 30
0.0
 11
10.27905279817767
 21
-77.82154417627909
 31
0.0
  0
LINE
  5
1A2
330
449
100
AcDbEntity
  8
DATA
  6
Continuous
 62
     7
100
AcDbLine
 10
13.25502328793824
 20
-77.55128611540022
 30
0.0
 11
10.69755578491699
 21
-78.72975959681001
 31
0.0
  0
LINE
  5
1A3
330
449
100
AcDbEntity
  8
DATA
  6
Continuous
 62
     7
100
AcDbLine
 10
13.67352627467753
 20
-78.45950153593115
 30
0.0
 11
11.1160587716563
 21
-79.63797501734093
 31
0.0
  0
LINE
  5
1A4
330
449
100
AcDbEntity
  8
DATA
  6
Continuous
 62
     7
100
AcDbLine
 10
13.99912011795301
 20
-79.16608992039325
 30
0.0
 11
12.83652030119891
 21
-76.6430706948693
 31
0.0
  0
ARC
  5
1A5
330
449
100
AcDbEntity
  8
DATA
  6
Continuous
 62
     7
100
AcDbCircle
 10
63.48665459701867
 20
-74.53824085349348
 30
0.0
 40
2.5
100
AcDbArc
 50
41.21172133209777
 51
86.21000220052962
  0
ARC
  5
1A6
330
449
100
AcDbEntity
  8
DATA
  6
Continuous
 62
     7
100
AcDbCircle
 10
63.48665459701867
 20
-74.53824085349348
 30
0.0
 40
2.499999999999988
100
AcDbArc
 50
282.5549073444039
 51
327.5531882128345
  0
ARC
  5
1A7
330
449
100
AcDbEntity
  8
DATA
  6
Continuous
 62
     7
100
AcDbCircle
 10
55.52579443961852
 20
-49.71969713479669
 30
0.0
 40
28.55456709916284
100
AcDbArc
 50
277.78272892322
 51
287.3270857655939
  0
ARC
  5
1A8
330
449
100
AcDbEntity
  8
DATA
  6
Continuous
 62
     7
100
AcDbCircle
 10
59.40062614503268
 20
-100.2800313555566
 30
0.0
 40
28.55456709916288
100
AcDbArc
 50
81.43782377933808
 51
90.982180621712
  0
ARC
  5
1A9
330
449
100
AcDbEntity
  8
DATA
  6
Continuous
 62
     7
100
AcDbCircle
 10
54.81707088670407
 20
-75.20265849137523
 30
0.0
 40
2.500000000000015
100
AcDbArc
 50
226.8022688860246
 51
266.2100022005266
  0
ARC
  5
1AA
330
449
100
AcDbEntity
  8
DATA
  6
Continuous
 62
     7
100
AcDbCircle
 10
54.81707088670407
 20
-75.20265849137523
 30
0.0
 40
2.499999999999988
100
AcDbArc
 50
102.554907344404
 51
141.9626406589068
  0
ARC
  5
1AB
330
449
100
AcDbEntity
  8
DATA
  6
Continuous
 62
     7
100
AcDbCircle
 10
58.90309933869001
 20
-49.46086798931211
 30
0.0
 40
28.55456709916289
100
AcDbArc
 50
261.4378237793381
 51
270.982180621712
  0
ARC
  5
1AC
330
449
100
AcDbEntity
  8
DATA
  6
Continuous
 62
     7
100
AcDbCircle
 10
62.77793104410415
 20
-100.021202210072
 30
0.0
 40
28.55456709916293
100
AcDbArc
 50
97.78272892322007
 51
107.327085765594
  0
ARC
  5
1AD
330
449
100
AcDbEntity
  8
DATA
  6
Continuous
 62
     7
100
AcDbCircle
 10
78.70380094264818
 20
-73.37203255928955
 30
0.0
 40
1.300000000000029
100
AcDbArc
 50
274.382454772466
 51
94.38245477246617
  0
ARC
  5
1AE
330
449
100
AcDbEntity
  8
DATA
  6
Continuous
 62
     7
100
AcDbCircle
 10
45.41281101246998
 20
-75.92338007852948
 30
0.0
 40
1.799798366599547
100
AcDbArc
 50
93.52450481541531
 51
275.2404047295164
  0
LINE
  5
1AF
330
449
100
AcDbEntity
  8
DATA
  6
Continuous
 62
     7
100
AcDbLine
 10
78.80313875922379
 20
-74.66823161738133
 30
0.0
 11
45.57719532786745
 21
-77.7156557150502
 31
0.0
  0
LINE
  5
1B0
330
449
100
AcDbEntity
  8
DATA
  6
Continuous
 62
     7
100
AcDbLine
 10
78.6044631260726
 20
-72.07583350119779
 30
0.0
 11
45.30216764130875
 21
-74.12698585541683
 31
0.0
  0
ARC
  5
1B1
330
449
100
AcDbEntity
  8
DATA
  6
Continuous
 62
     7
100
AcDbCircle
 10
51.93701683713454
 20
-168.338667421121
 30
0.0
 40
95.78236949266658
100
AcDbArc
 50
99.25220356155357
 51
111.6270900661131
  0
ARC
  5
1B2
330
449
100
AcDbEntity
  8
DATA
  6
Continuous
 62
     7
100
AcDbCircle
 10
51.93701683713454
 20
-168.338667421121
 30
0.0
 40
95.10565244316572
100
AcDbArc
 50
98.973078287112
 51
111.5903766678236
  0
LINE
  5
1B3
330
449
100
AcDbEntity
  8
DATA
  6
Continuous
 62
     7
100
AcDbLine
 10
36.98619494688973
 20
-70.02873847427949
 30
0.0
 11
36.53707720568847
 21
-73.80240895391968
 31
0.0
  0
LINE
  5
1B4
330
449
100
AcDbEntity
  8
DATA
  6
Continuous
 62
     7
100
AcDbLine
 10
37.54675763483151
 20
-69.91925408823586
 30
0.0
 11
40.16846538298607
 21
-74.6704566593517
 31
0.0
  0
LINE
  5
1B5
330
449
100
AcDbEntity
  8
DATA
  6
Continuous
 62
     7
100
AcDbLine
 10
37.62038028276827
 20
-70.05267708872697
 30
0.0
 11
37.10335397147823
 21
-74.3969430776309
 31
0.0
  0
LINE
  5
1B6
330
449
100
AcDbEntity
  8
DATA
  6
Continuous
 62
     7
100
AcDbLine
 10
37.50098592546101
 20
-71.0558771858804
 30
0.0
 11
39.8555759608311
 21
-75.32299438757687
 31
0.0
  0
LINE
  5
1B7
330
449
100
AcDbEntity
  8
DATA
  6
Continuous
 62
     7
100
AcDbLine
 10
42.08095360678898
 20
-75.80764125026698
 30
0.0
 11
43.62833202281542
 21
-75.68905360564206
 31
0.0
  0
LINE
  5
1B8
330
449
100
AcDbEntity
  8
DATA
  6
Continuous
 62
     7
100
AcDbLine
 10
42.19732432044395
 20
-76.54089281487729
 30
0.0
 11
43.68487816455846
 21
-76.42688999255584
 31
0.0
  0
ARC
  5
1B9
330
449
100
AcDbEntity
  8
DATA
  6
Continuous
 62
     7
100
AcDbCircle
 10
41.8195971804806
 20
-74.40689788489321
 30
0.0
 40
2.16716684947485
100
AcDbArc
 50
205.0061907511167
 51
280.037655401402
  0
ARC
  5
1BA
330
449
100
AcDbEntity
  8
DATA
  6
Continuous
 62
     7
100
AcDbCircle
 10
41.88487466290615
 20
-73.9606224411238
 30
0.0
 40
1.857397489382121
100
AcDbArc
 50
202.4679160185418
 51
276.0598057670912
  0
ARC
  5
1BB
330
449
100
AcDbEntity
  8
DATA
  6
Continuous
 62
     7
100
AcDbCircle
 10
37.28409262198032
 20
-70.0641923199896
 30
0.0
 40
0.300000000000012
100
AcDbArc
 50
28.88986000260205
 51
173.2129528493742
  0
ARC
  5
1BC
330
449
100
AcDbEntity
  8
DATA
  6
Continuous
 62
     7
100
AcDbCircle
 10
38.80086665352775
 20
-135.2806659559966
 30
0.0
 40
64.83885997337684
100
AcDbArc
 50
181.8992939634555
 51
211.9068906661054
  0
ARC
  5
1BD
330
449
100
AcDbEntity
  8
DATA
  6
Continuous
 62
     7
100
AcDbCircle
 10
38.80086665352775
 20
-135.2806659559966
 30
0.0
 40
64.83885997337681
100
AcDbArc
 50
214.3892753020092
 51
222.1078880032671
  0
ARC
  5
1BE
330
449
100
AcDbEntity
  8
DATA
  6
Continuous
 62
     7
100
AcDbCircle
 10
38.80086665352775
 20
-135.2806659559966
 30
0.0
 40
64.83885997337684
100
AcDbArc
 50
224.5756442125476
 51
243.4784064446049
  0
ARC
  5
1BF
330
449
100
AcDbEntity
  8
DATA
  6
Continuous
 62
     7
100
AcDbCircle
 10
26.76146488280679
 20
-130.6452797163548
 30
0.0
 40
58.64863356637128
100
AcDbArc
 50
224.8423919957588
 51
224.8806985861972
  0
LINE
  5
1C0
330
449
100
AcDbEntity
  8
DATA
  6
Continuous
 62
     7
100
AcDbLine
 10
-14.94448890765636
 20
-172.1040944138244
 30
0.0
 11
-12.71648478726665
 21
-170.2251286333227
 31
0.0
  0
LINE
  5
1C1
330
449
100
AcDbEntity
  8
DATA
  6
Continuous
 62
     7
100
AcDbLine
 10
-16.64700769656164
 20
-169.892716814099
 30
0.0
 11
-14.61897046877323
 21
-168.1823911833136
 31
0.0
  0
LINE
  5
1C2
330
449
100
AcDbEntity
  8
DATA
  6
Continuous
 62
     7
100
AcDbLine
 10
-12.71648478726665
 20
-170.2251286333227
 30
0.0
 11
-14.61897046877323
 21
-168.1823911833136
 31
0.0
  0
LINE
  5
1C3
330
449
100
AcDbEntity
  8
DATA
  6
Continuous
 62
     7
100
AcDbLine
 10
-21.82326506504693
 20
-260.4250000000015
 30
0.0
 11
-13.28271678584693
 21
-260.4250000000023
 31
0.0
  0
LINE
  5
1C4
330
449
100
AcDbEntity
  8
DATA
  6
Continuous
 62
     7
100
AcDbLine
 10
-21.82326506504706
 20
-264.5750000000015
 30
0.0
 11
-13.28271678584704
 21
-264.5750000000023
 31
0.0
  0
LINE
  5
1C5
330
449
100
AcDbEntity
  8
DATA
  6
Continuous
 62
     7
100
AcDbLine
 10
-21.82326506504693
 20
-260.4250000000015
 30
0.0
 11
-24.11091192554693
 21
-260.5446120689669
 31
0.0
  0
LINE
  5
1C6
330
449
100
AcDbEntity
  8
DATA
  6
Continuous
 62
     7
100
AcDbLine
 10
-24.64469619299693
 20
-260.5725215517254
 30
0.0
 11
-26.24604899534694
 21
-260.6562500000012
 31
0.0
  0
LINE
  5
1C7
330
449
100
AcDbEntity
  8
DATA
  6
Continuous
 62
     7
100
AcDbLine
 10
-26.77983326279693
 20
-260.6841594827597
 30
0.0
 11
-28.38118606514693
 21
-260.7678879310355
 31
0.0
  0
LINE
  5
1C8
330
449
100
AcDbEntity
  8
DATA
  6
Continuous
 62
     7
100
AcDbLine
 10
-28.91497033259693
 20
-260.795797413794
 30
0.0
 11
-30.51632313494696
 21
-260.8795258620697
 31
0.0
  0
LINE
  5
1C9
330
449
100
AcDbEntity
  8
DATA
  6
Continuous
 62
     7
100
AcDbLine
 10
-31.05010740239697
 20
-260.9074353448284
 30
0.0
 11
-32.65146020474694
 21
-260.9911637931041
 31
0.0
  0
LINE
  5
1CA
330
449
100
AcDbEntity
  8
DATA
  6
Continuous
 62
     7
100
AcDbLine
 10
-33.18524447219696
 20
-261.0190732758627
 30
0.0
 11
-34.78659727454695
 21
-261.1028017241384
 31
0.0
  0
LINE
  5
1CB
330
449
100
AcDbEntity
  8
DATA
  6
Continuous
 62
     7
100
AcDbLine
 10
-35.32038154199696
 20
-261.130711206897
 30
0.0
 11
-36.92173434434697
 21
-261.2144396551727
 31
0.0
  0
LINE
  5
1CC
330
449
100
AcDbEntity
  8
DATA
  6
Continuous
 62
     7
100
AcDbLine
 10
-37.45551861179697
 20
-261.2423491379313
 30
0.0
 11
-39.51440078624697
 21
-261.35
 31
0.0
  0
LINE
  5
1CD
330
449
100
AcDbEntity
  8
DATA
  6
Continuous
 62
     7
100
AcDbLine
 10
-21.82326506504706
 20
-264.5750000000015
 30
0.0
 11
-24.11091192554706
 21
-264.4553879310358
 31
0.0
  0
LINE
  5
1CE
330
449
100
AcDbEntity
  8
DATA
  6
Continuous
 62
     7
100
AcDbLine
 10
-24.64469619299706
 20
-264.4274784482772
 30
0.0
 11
-26.24604899534706
 21
-264.3437500000012
 31
0.0
  0
LINE
  5
1CF
330
449
100
AcDbEntity
  8
DATA
  6
Continuous
 62
     7
100
AcDbLine
 10
-26.77983326279705
 20
-264.3158405172425
 30
0.0
 11
-28.38118606514705
 21
-264.2321120689666
 31
0.0
  0
LINE
  5
1D0
330
449
100
AcDbEntity
  8
DATA
  6
Continuous
 62
     7
100
AcDbLine
 10
-28.91497033259705
 20
-264.2042025862078
 30
0.0
 11
-30.51632313494705
 21
-264.1204741379318
 31
0.0
  0
LINE
  5
1D1
330
449
100
AcDbEntity
  8
DATA
  6
Continuous
 62
     7
100
AcDbLine
 10
-31.05010740239706
 20
-264.0925646551732
 30
0.0
 11
-32.65146020474706
 21
-264.0088362068972
 31
0.0
  0
LINE
  5
1D2
330
449
100
AcDbEntity
  8
DATA
  6
Continuous
 62
     7
100
AcDbLine
 10
-33.18524447219706
 20
-263.9809267241385
 30
0.0
 11
-34.78659727454703
 21
-263.8971982758625
 31
0.0
  0
LINE
  5
1D3
330
449
100
AcDbEntity
  8
DATA
  6
Continuous
 62
     7
100
AcDbLine
 10
-35.32038154199705
 20
-263.8692887931039
 30
0.0
 11
-36.92173434434704
 21
-263.7855603448279
 31
0.0
  0
LINE
  5
1D4
330
449
100
AcDbEntity
  8
DATA
  6
Continuous
 62
     7
100
AcDbLine
 10
-37.45551861179703
 20
-263.7576508620692
 30
0.0
 11
-39.51440078624704
 21
-263.6500000000001
 31
0.0
  0
LINE
  5
1D5
330
449
100
AcDbEntity
  8
DATA
  6
Continuous
 62
     7
100
AcDbLine
 10
-23.04334339064692
 20
-260.4887931034497
 30
0.0
 11
-23.04334339064707
 21
-264.5112068965532
 31
0.0
  0
LINE
  5
1D6
330
449
100
AcDbEntity
  8
DATA
  6
Continuous
 62
     7
100
AcDbLine
 10
-24.11091192554698
 20
-261.5000000000013
 30
0.0
 11
-24.64469619299697
 21
-261.5000000000013
 31
0.0
  0
LINE
  5
1D7
330
449
100
AcDbEntity
  8
DATA
  6
Continuous
 62
     7
100
AcDbLine
 10
-24.11091192554702
 20
-263.5000000000013
 30
0.0
 11
-24.64469619299702
 21
-263.5000000000013
 31
0.0
  0
LINE
  5
1D8
330
449
100
AcDbEntity
  8
DATA
  6
Continuous
 62
     7
100
AcDbLine
 10
-35.85416580944697
 20
-261.1586206896555
 30
0.0
 11
-35.85416580944705
 21
-263.8413793103452
 31
0.0
  0
LINE
  5
1D9
330
449
100
AcDbEntity
  8
DATA
  6
Continuous
 62
     7
100
AcDbLine
 10
-25.17848046044692
 20
-260.600431034484
 30
0.0
 11
-25.17848046044707
 21
-264.3995689655185
 31
0.0
  0
LINE
  5
1DA
330
449
100
AcDbEntity
  8
DATA
  6
Continuous
 62
     7
100
AcDbLine
 10
-27.31361753024693
 20
-260.7120689655184
 30
0.0
 11
-27.31361753024705
 21
-264.2879310344838
 31
0.0
  0
LINE
  5
1DB
330
449
100
AcDbEntity
  8
DATA
  6
Continuous
 62
     7
100
AcDbLine
 10
-29.44875460004695
 20
-260.8237068965526
 30
0.0
 11
-29.44875460004705
 21
-264.1762931034492
 31
0.0
  0
LINE
  5
1DC
330
449
100
AcDbEntity
  8
DATA
  6
Continuous
 62
     7
100
AcDbLine
 10
-31.58389166984695
 20
-260.935344827587
 30
0.0
 11
-31.58389166984706
 21
-264.0646551724145
 31
0.0
  0
LINE
  5
1DD
330
449
100
AcDbEntity
  8
DATA
  6
Continuous
 62
     7
100
AcDbLine
 10
-33.71902873964695
 20
-261.0469827586213
 30
0.0
 11
-33.71902873964705
 21
-263.9530172413799
 31
0.0
  0
LINE
  5
1DE
330
449
100
AcDbEntity
  8
DATA
  6
Continuous
 62
     7
100
AcDbLine
 10
-23.57712765809694
 20
-260.5167025862084
 30
0.0
 11
-23.57712765809705
 21
-264.4832974137945
 31
0.0
  0
LINE
  5
1DF
330
449
100
AcDbEntity
  8
DATA
  6
Continuous
 62
     7
100
AcDbLine
 10
-24.11091192554693
 20
-260.5446120689669
 30
0.0
 11
-24.11091192554706
 21
-264.4553879310358
 31
0.0
  0
LINE
  5
1E0
330
449
100
AcDbEntity
  8
DATA
  6
Continuous
 62
     7
100
AcDbLine
 10
-24.64469619299693
 20
-260.5725215517254
 30
0.0
 11
-24.64469619299706
 21
-264.4274784482772
 31
0.0
  0
LINE
  5
1E1
330
449
100
AcDbEntity
  8
DATA
  6
Continuous
 62
     7
100
AcDbLine
 10
-26.24604899534697
 20
-261.5000000000011
 30
0.0
 11
-26.77983326279697
 21
-261.5000000000011
 31
0.0
  0
LINE
  5
1E2
330
449
100
AcDbEntity
  8
DATA
  6
Continuous
 62
     7
100
AcDbLine
 10
-26.24604899534702
 20
-263.5000000000011
 30
0.0
 11
-26.77983326279704
 21
-263.5000000000011
 31
0.0
  0
LINE
  5
1E3
330
449
100
AcDbEntity
  8
DATA
  6
Continuous
 62
     7
100
AcDbLine
 10
-25.71226472789693
 20
-260.6283405172426
 30
0.0
 11
-25.71226472789707
 21
-264.3716594827599
 31
0.0
  0
LINE
  5
1E4
330
449
100
AcDbEntity
  8
DATA
  6
Continuous
 62
     7
100
AcDbLine
 10
-26.24604899534694
 20
-260.6562500000012
 30
0.0
 11
-26.24604899534705
 21
-264.3437500000011
 31
0.0
  0
LINE
  5
1E5
330
449
100
AcDbEntity
  8
DATA
  6
Continuous
 62
     7
100
AcDbLine
 10
-26.77983326279695
 20
-260.6841594827597
 30
0.0
 11
-26.77983326279705
 21
-264.3158405172425
 31
0.0
  0
LINE
  5
1E6
330
449
100
AcDbEntity
  8
DATA
  6
Continuous
 62
     7
100
AcDbLine
 10
-28.38118606514699
 20
-261.500000000001
 30
0.0
 11
-28.91497033259697
 21
-261.5000000000009
 31
0.0
  0
LINE
  5
1E7
330
449
100
AcDbEntity
  8
DATA
  6
Continuous
 62
     7
100
AcDbLine
 10
-28.38118606514703
 20
-263.500000000001
 30
0.0
 11
-28.91497033259704
 21
-263.500000000001
 31
0.0
  0
LINE
  5
1E8
330
449
100
AcDbEntity
  8
DATA
  6
Continuous
 62
     7
100
AcDbLine
 10
-27.84740179769693
 20
-260.7399784482769
 30
0.0
 11
-27.84740179769706
 21
-264.2600215517252
 31
0.0
  0
LINE
  5
1E9
330
449
100
AcDbEntity
  8
DATA
  6
Continuous
 62
     7
100
AcDbLine
 10
-28.38118606514695
 20
-260.7678879310355
 30
0.0
 11
-28.38118606514705
 21
-264.2321120689666
 31
0.0
  0
LINE
  5
1EA
330
449
100
AcDbEntity
  8
DATA
  6
Continuous
 62
     7
100
AcDbLine
 10
-28.91497033259695
 20
-260.7957974137941
 30
0.0
 11
-28.91497033259705
 21
-264.2042025862078
 31
0.0
  0
LINE
  5
1EB
330
449
100
AcDbEntity
  8
DATA
  6
Continuous
 62
     7
100
AcDbLine
 10
-30.51632313494696
 20
-261.5000000000009
 30
0.0
 11
-31.05010740239699
 21
-261.5000000000008
 31
0.0
  0
LINE
  5
1EC
330
449
100
AcDbEntity
  8
DATA
  6
Continuous
 62
     7
100
AcDbLine
 10
-30.51632313494704
 20
-263.5000000000009
 30
0.0
 11
-31.05010740239702
 21
-263.5000000000008
 31
0.0
  0
LINE
  5
1ED
330
449
100
AcDbEntity
  8
DATA
  6
Continuous
 62
     7
100
AcDbLine
 10
-29.98253886749695
 20
-260.8516163793112
 30
0.0
 11
-29.98253886749703
 21
-264.1483836206905
 31
0.0
  0
LINE
  5
1EE
330
449
100
AcDbEntity
  8
DATA
  6
Continuous
 62
     7
100
AcDbLine
 10
-30.51632313494695
 20
-260.8795258620698
 30
0.0
 11
-30.51632313494705
 21
-264.1204741379318
 31
0.0
  0
LINE
  5
1EF
330
449
100
AcDbEntity
  8
DATA
  6
Continuous
 62
     7
100
AcDbLine
 10
-31.05010740239697
 20
-260.9074353448284
 30
0.0
 11
-31.05010740239706
 21
-264.0925646551732
 31
0.0
  0
LINE
  5
1F0
330
449
100
AcDbEntity
  8
DATA
  6
Continuous
 62
     7
100
AcDbLine
 10
-32.65146020474697
 20
-261.5000000000007
 30
0.0
 11
-33.18524447219696
 21
-261.5000000000006
 31
0.0
  0
LINE
  5
1F1
330
449
100
AcDbEntity
  8
DATA
  6
Continuous
 62
     7
100
AcDbLine
 10
-32.65146020474702
 20
-263.5000000000007
 30
0.0
 11
-33.18524447219703
 21
-263.5000000000006
 31
0.0
  0
LINE
  5
1F2
330
449
100
AcDbEntity
  8
DATA
  6
Continuous
 62
     7
100
AcDbLine
 10
-32.11767593729695
 20
-260.9632543103455
 30
0.0
 11
-32.11767593729705
 21
-264.0367456896559
 31
0.0
  0
LINE
  5
1F3
330
449
100
AcDbEntity
  8
DATA
  6
Continuous
 62
     7
100
AcDbLine
 10
-32.65146020474694
 20
-260.9911637931041
 30
0.0
 11
-32.65146020474706
 21
-264.0088362068972
 31
0.0
  0
LINE
  5
1F4
330
449
100
AcDbEntity
  8
DATA
  6
Continuous
 62
     7
100
AcDbLine
 10
-33.18524447219696
 20
-261.0190732758627
 30
0.0
 11
-33.18524447219703
 21
-263.9809267241386
 31
0.0
  0
LINE
  5
1F5
330
449
100
AcDbEntity
  8
DATA
  6
Continuous
 62
     7
100
AcDbLine
 10
-34.78659727454698
 20
-261.5000000000004
 30
0.0
 11
-35.32038154199697
 21
-261.5000000000004
 31
0.0
  0
LINE
  5
1F6
330
449
100
AcDbEntity
  8
DATA
  6
Continuous
 62
     7
100
AcDbLine
 10
-34.78659727454702
 20
-263.5000000000005
 30
0.0
 11
-35.32038154199704
 21
-263.5000000000004
 31
0.0
  0
LINE
  5
1F7
330
449
100
AcDbEntity
  8
DATA
  6
Continuous
 62
     7
100
AcDbLine
 10
-34.25281300709695
 20
-261.0748922413798
 30
0.0
 11
-34.25281300709705
 21
-263.9251077586211
 31
0.0
  0
LINE
  5
1F8
330
449
100
AcDbEntity
  8
DATA
  6
Continuous
 62
     7
100
AcDbLine
 10
-34.78659727454695
 20
-261.1028017241384
 30
0.0
 11
-34.78659727454704
 21
-263.8971982758625
 31
0.0
  0
LINE
  5
1F9
330
449
100
AcDbEntity
  8
DATA
  6
Continuous
 62
     7
100
AcDbLine
 10
-35.32038154199696
 20
-261.130711206897
 30
0.0
 11
-35.32038154199705
 21
-263.8692887931038
 31
0.0
  0
LINE
  5
1FA
330
449
100
AcDbEntity
  8
DATA
  6
Continuous
 62
     7
100
AcDbLine
 10
-36.92173434434697
 20
-261.5000000000003
 30
0.0
 11
-37.45551861179696
 21
-261.5000000000003
 31
0.0
  0
LINE
  5
1FB
330
449
100
AcDbEntity
  8
DATA
  6
Continuous
 62
     7
100
AcDbLine
 10
-36.92173434434704
 20
-263.5000000000003
 30
0.0
 11
-37.45551861179704
 21
-263.5000000000003
 31
0.0
  0
LINE
  5
1FC
330
449
100
AcDbEntity
  8
DATA
  6
Continuous
 62
     7
100
AcDbLine
 10
-36.38795007689696
 20
-261.1865301724141
 30
0.0
 11
-36.38795007689706
 21
-263.8134698275865
 31
0.0
  0
LINE
  5
1FD
330
449
100
AcDbEntity
  8
DATA
  6
Continuous
 62
     7
100
AcDbLine
 10
-36.92173434434697
 20
-261.2144396551727
 30
0.0
 11
-36.92173434434704
 21
-263.7855603448279
 31
0.0
  0
LINE
  5
1FE
330
449
100
AcDbEntity
  8
DATA
  6
Continuous
 62
     7
100
AcDbLine
 10
-37.45551861179697
 20
-261.2423491379313
 30
0.0
 11
-37.45551861179703
 21
-263.7576508620692
 31
0.0
  0
LINE
  5
1FF
330
449
100
AcDbEntity
  8
DATA
  6
Continuous
 62
     7
100
AcDbLine
 10
-39.51440078624697
 20
-261.35
 30
0.0
 11
-39.51440078624704
 21
-263.6500000000001
 31
0.0
  0
LINE
  5
200
330
449
100
AcDbEntity
  8
DATA
  6
Continuous
 62
     7
100
AcDbLine
 10
-13.28271678584693
 20
-260.4250000000001
 30
0.0
 11
-13.28271678584705
 21
-264.575
 31
0.0
  0
LINE
  5
201
330
449
100
AcDbEntity
  8
DATA
  6
Continuous
 62
     7
100
AcDbLine
 10
-13.28271678584699
 20
-261.5
 30
0.0
 11
9.682895772011343
 21
-261.5
 31
0.0
  0
LINE
  5
202
330
449
100
AcDbEntity
  8
DATA
  6
Continuous
 62
     7
100
AcDbLine
 10
16.48768731306977
 20
-261.5
 30
0.0
 11
54.68687919869898
 21
-261.4999999999999
 31
0.0
  0
LINE
  5
203
330
449
100
AcDbEntity
  8
DATA
  6
Continuous
 62
     7
100
AcDbLine
 10
-13.28271678584699
 20
-263.5
 30
0.0
 11
9.563048507392622
 21
-263.5
 31
0.0
  0
LINE
  5
204
330
449
100
AcDbEntity
  8
DATA
  6
Continuous
 62
     7
100
AcDbLine
 10
16.60753457768853
 20
-263.5
 30
0.0
 11
54.68687919869898
 21
-263.4999999999999
 31
0.0
  0
ARC
  5
205
330
449
100
AcDbEntity
  8
DATA
  6
Continuous
 62
     7
100
AcDbCircle
 10
10.98051585359519
 20
-262.5813489503552
 30
0.0
 40
1.689122088116814
100
AcDbArc
 50
100.6594082950097
 51
253.8196702354376
  0
LINE
  5
206
330
449
100
AcDbEntity
  8
DATA
  6
Continuous
 62
     7
100
AcDbLine
 10
15.6607603756096
 20
-264.2035639153458
 30
0.0
 11
10.50982270947159
 21
-264.2035639153458
 31
0.0
  0
LINE
  5
207
330
449
100
AcDbEntity
  8
DATA
  6
Continuous
 62
     7
100
AcDbLine
 10
15.50250486718297
 20
-260.9213742058594
 30
0.0
 11
10.66807821789804
 21
-260.9213742058594
 31
0.0
  0
ARC
  5
208
330
449
100
AcDbEntity
  8
DATA
  6
Continuous
 62
     7
100
AcDbCircle
 10
15.19006723148592
 20
-262.5813489503553
 30
0.0
 40
1.689122088116745
100
AcDbArc
 50
286.1803297645597
 51
79.34059170499397
  0
LINE
  5
209
330
449
100
AcDbEntity
  8
DATA
  6
Continuous
 62
     7
100
AcDbLine
 10
167.1343985758385
 20
-260.075
 30
0.0
 11
167.1343985758385
 21
-264.925
 31
0.0
  0
LINE
  5
20A
330
449
100
AcDbEntity
  8
DATA
  6
Continuous
 62
     7
100
AcDbLine
 10
156.9343985758384
 20
-260.075
 30
0.0
 11
156.9343985758384
 21
-264.925
 31
0.0
  0
LINE
  5
20B
330
449
100
AcDbEntity
  8
DATA
  6
Continuous
 62
     7
100
AcDbLine
 10
156.9343985758384
 20
-260.075
 30
0.0
 11
167.1343985758385
 21
-260.075
 31
0.0
  0
LINE
  5
20C
330
449
100
AcDbEntity
  8
DATA
  6
Continuous
 62
     7
100
AcDbLine
 10
156.9343985758384
 20
-264.925
 30
0.0
 11
167.1343985758385
 21
-264.925
 31
0.0
  0
CIRCLE
  5
20D
330
449
100
AcDbEntity
  8
DATA
  6
Continuous
 62
     7
100
AcDbCircle
 10
181.25
 20
-262.5
 30
0.0
 40
2.0
  0
CIRCLE
  5
20E
330
449
100
AcDbEntity
  8
DATA
  6
Continuous
 62
     7
100
AcDbCircle
 10
181.25
 20
-262.5
 30
0.0
 40
2.425000000000011
  0
CIRCLE
  5
20F
330
449
100
AcDbEntity
  8
DATA
  6
Continuous
 62
     7
100
AcDbCircle
 10
160.3343985758384
 20
-262.5
 30
0.0
 40
0.2250000000000227
  0
ARC
  5
210
330
449
100
AcDbEntity
  8
DATA
  6
Continuous
 62
     7
100
AcDbCircle
 10
160.3336097325039
 20
-261.8388947103285
 30
0.0
 40
0.2289955863017323
100
AcDbArc
 50
89.80262727378491
 51
119.1981220209054
  0
ARC
  5
211
330
449
100
AcDbEntity
  8
DATA
  6
Continuous
 62
     7
100
AcDbCircle
 10
160.3182956557347
 20
-261.8212757757035
 30
0.0
 40
0.2061999183231433
100
AcDbArc
 50
117.8717037400328
 51
150.099307095648
  0
ARC
  5
212
330
449
100
AcDbEntity
  8
DATA
  6
Continuous
 62
     7
100
AcDbCircle
 10
160.3172676165838
 20
-261.8263003338547
 30
0.0
 40
0.2078704674302902
100
AcDbArc
 50
148.7573469681314
 51
180.212278260831
  0
ARC
  5
213
330
449
100
AcDbEntity
  8
DATA
  6
Continuous
 62
     7
100
AcDbCircle
 10
160.3351874191731
 20
-261.8388947103285
 30
0.0
 40
0.2289955863017289
100
AcDbArc
 50
60.80187797908219
 51
90.19737272622931
  0
ARC
  5
214
330
449
100
AcDbEntity
  8
DATA
  6
Continuous
 62
     7
100
AcDbCircle
 10
160.3505014959423
 20
-261.8212757757035
 30
0.0
 40
0.2061999183231781
100
AcDbArc
 50
29.90069290434412
 51
62.12829625995325
  0
ARC
  5
215
330
449
100
AcDbEntity
  8
DATA
  6
Continuous
 62
     7
100
AcDbCircle
 10
160.3515295350931
 20
-261.8263003338547
 30
0.0
 40
0.2078704674303198
100
AcDbArc
 50
359.787721739169
 51
31.24265303186041
  0
ARC
  5
216
330
449
100
AcDbEntity
  8
DATA
  6
Continuous
 62
     7
100
AcDbCircle
 10
160.3336097325039
 20
-261.8152462551384
 30
0.0
 40
0.2289955863017012
100
AcDbArc
 50
240.8018779790945
 51
270.1973727262151
  0
ARC
  5
217
330
449
100
AcDbEntity
  8
DATA
  6
Continuous
 62
     7
100
AcDbCircle
 10
160.3182956557347
 20
-261.8328651897634
 30
0.0
 40
0.2061999183231288
100
AcDbArc
 50
209.900692904352
 51
242.1282962599672
  0
ARC
  5
218
330
449
100
AcDbEntity
  8
DATA
  6
Continuous
 62
     7
100
AcDbCircle
 10
160.3172676165838
 20
-261.8278406316123
 30
0.0
 40
0.2078704674303198
100
AcDbArc
 50
179.787721739169
 51
211.2426530318685
  0
ARC
  5
219
330
449
100
AcDbEntity
  8
DATA
  6
Continuous
 62
     7
100
AcDbCircle
 10
160.3351874191731
 20
-261.8152462551384
 30
0.0
 40
0.2289955863017325
100
AcDbArc
 50
269.8026272737707
 51
299.1981220209178
  0
ARC
  5
21A
330
449
100
AcDbEntity
  8
DATA
  6
Continuous
 62
     7
100
AcDbCircle
 10
160.3505014959423
 20
-261.8328651897634
 30
0.0
 40
0.2061999183231698
100
AcDbArc
 50
297.8717037400468
 51
330.0993070956559
  0
ARC
  5
21B
330
449
100
AcDbEntity
  8
DATA
  6
Continuous
 62
     7
100
AcDbCircle
 10
160.3515295350931
 20
-261.8278406316123
 30
0.0
 40
0.2078704674303388
100
AcDbArc
 50
328.7573469681397
 51
0.2122782608310558
  0
CIRCLE
  5
21C
330
449
100
AcDbEntity
  8
DATA
  6
Continuous
 62
     7
100
AcDbCircle
 10
161.1343985758385
 20
-262.5
 30
0.0
 40
0.2249999999999659
  0
ARC
  5
21D
330
449
100
AcDbEntity
  8
DATA
  6
Continuous
 62
     7
100
AcDbCircle
 10
161.1336097325039
 20
-261.8388947103285
 30
0.0
 40
0.2289955863017325
100
AcDbArc
 50
89.8026272737707
 51
119.1981220209178
  0
ARC
  5
21E
330
449
100
AcDbEntity
  8
DATA
  6
Continuous
 62
     7
100
AcDbCircle
 10
161.1182956557347
 20
-261.8212757757035
 30
0.0
 40
0.2061999183231698
100
AcDbArc
 50
117.8717037400468
 51
150.0993070956559
  0
ARC
  5
21F
330
449
100
AcDbEntity
  8
DATA
  6
Continuous
 62
     7
100
AcDbCircle
 10
161.1172676165839
 20
-261.8263003338547
 30
0.0
 40
0.2078704674303388
100
AcDbArc
 50
148.7573469681396
 51
180.2122782608309
  0
ARC
  5
220
330
449
100
AcDbEntity
  8
DATA
  6
Continuous
 62
     7
100
AcDbCircle
 10
161.1351874191731
 20
-261.8388947103285
 30
0.0
 40
0.2289955863017012
100
AcDbArc
 50
60.80187797909461
 51
90.1973727262151
  0
ARC
  5
221
330
449
100
AcDbEntity
  8
DATA
  6
Continuous
 62
     7
100
AcDbCircle
 10
161.1505014959423
 20
-261.8212757757035
 30
0.0
 40
0.2061999183231288
100
AcDbArc
 50
29.900692904352
 51
62.12829625996722
  0
ARC
  5
222
330
449
100
AcDbEntity
  8
DATA
  6
Continuous
 62
     7
100
AcDbCircle
 10
161.1515295350931
 20
-261.8263003338547
 30
0.0
 40
0.2078704674303198
100
AcDbArc
 50
359.787721739169
 51
31.24265303186855
  0
ARC
  5
223
330
449
100
AcDbEntity
  8
DATA
  6
Continuous
 62
     7
100
AcDbCircle
 10
161.1336097325039
 20
-261.8152462551384
 30
0.0
 40
0.2289955863017289
100
AcDbArc
 50
240.8018779790821
 51
270.1973727262293
  0
ARC
  5
224
330
449
100
AcDbEntity
  8
DATA
  6
Continuous
 62
     7
100
AcDbCircle
 10
161.1182956557347
 20
-261.8328651897634
 30
0.0
 40
0.2061999183231781
100
AcDbArc
 50
209.9006929043441
 51
242.1282962599532
  0
ARC
  5
225
330
449
100
AcDbEntity
  8
DATA
  6
Continuous
 62
     7
100
AcDbCircle
 10
161.1172676165839
 20
-261.8278406316123
 30
0.0
 40
0.2078704674303198
100
AcDbArc
 50
179.787721739169
 51
211.2426530318604
  0
ARC
  5
226
330
449
100
AcDbEntity
  8
DATA
  6
Continuous
 62
     7
100
AcDbCircle
 10
161.1351874191731
 20
-261.8152462551384
 30
0.0
 40
0.2289955863017323
100
AcDbArc
 50
269.8026272737849
 51
299.1981220209055
  0
ARC
  5
227
330
449
100
AcDbEntity
  8
DATA
  6
Continuous
 62
     7
100
AcDbCircle
 10
161.1505014959423
 20
-261.8328651897634
 30
0.0
 40
0.2061999183231433
100
AcDbArc
 50
297.8717037400328
 51
330.099307095648
  0
ARC
  5
228
330
449
100
AcDbEntity
  8
DATA
  6
Continuous
 62
     7
100
AcDbCircle
 10
161.1515295350931
 20
-261.8278406316123
 30
0.0
 40
0.2078704674302902
100
AcDbArc
 50
328.7573469681315
 51
0.212278260830999
  0
ARC
  5
229
330
449
100
AcDbEntity
  8
DATA
  6
Continuous
 62
     7
100
AcDbCircle
 10
160.2813579133319
 20
-261.1999183771589
 30
0.0
 40
0.1719593568651117
100
AcDbArc
 50
145.5581888882178
 51
180.0271962199131
  0
ARC
  5
22A
330
449
100
AcDbEntity
  8
DATA
  6
Continuous
 62
     7
100
AcDbCircle
 10
160.3123023440141
 20
-261.219115849004
 30
0.0
 40
0.2083434395956278
100
AcDbArc
 50
115.7164033199595
 51
146.017189288965
  0
ARC
  5
22B
330
449
100
AcDbEntity
  8
DATA
  6
Continuous
 62
     7
100
AcDbCircle
 10
160.3328366373383
 20
-261.2542616083721
 30
0.0
 40
0.2489395077601874
100
AcDbArc
 50
89.6405027393318
 51
116.4644625488409
  0
ARC
  5
22C
330
449
100
AcDbEntity
  8
DATA
  6
Continuous
 62
     7
100
AcDbCircle
 10
160.387439238345
 20
-261.1999183771589
 30
0.0
 40
0.1719593568651288
100
AcDbArc
 50
359.9728037800869
 51
34.44181111177142
  0
ARC
  5
22D
330
449
100
AcDbEntity
  8
DATA
  6
Continuous
 62
     7
100
AcDbCircle
 10
160.3564948076628
 20
-261.219115849004
 30
0.0
 40
0.2083434395956925
100
AcDbArc
 50
33.98281071101747
 51
64.28359668001236
  0
ARC
  5
22E
330
449
100
AcDbEntity
  8
DATA
  6
Continuous
 62
     7
100
AcDbCircle
 10
160.3359605143386
 20
-261.2542616083721
 30
0.0
 40
0.2489395077601794
100
AcDbArc
 50
63.53553745113565
 51
90.35949726066823
  0
ARC
  5
22F
330
449
100
AcDbEntity
  8
DATA
  6
Continuous
 62
     7
100
AcDbCircle
 10
160.2813579133319
 20
-261.2000816228412
 30
0.0
 40
0.1719593568651288
100
AcDbArc
 50
179.9728037801058
 51
214.4418111117822
  0
ARC
  5
230
330
449
100
AcDbEntity
  8
DATA
  6
Continuous
 62
     7
100
AcDbCircle
 10
160.3123023440141
 20
-261.180884150996
 30
0.0
 40
0.2083434395955982
100
AcDbArc
 50
213.9828107110349
 51
244.2835966800404
  0
ARC
  5
231
330
449
100
AcDbEntity
  8
DATA
  6
Continuous
 62
     7
100
AcDbCircle
 10
160.3328366373383
 20
-261.1457383916279
 30
0.0
 40
0.2489395077600778
100
AcDbArc
 50
243.5355374511532
 51
270.3594972606683
  0
ARC
  5
232
330
449
100
AcDbEntity
  8
DATA
  6
Continuous
 62
     7
100
AcDbCircle
 10
160.387439238345
 20
-261.2000816228412
 30
0.0
 40
0.1719593568651586
100
AcDbArc
 50
325.5581888882285
 51
0.0271962198941651
  0
ARC
  5
233
330
449
100
AcDbEntity
  8
DATA
  6
Continuous
 62
     7
100
AcDbCircle
 10
160.3564948076628
 20
-261.180884150996
 30
0.0
 40
0.2083434395956772
100
AcDbArc
 50
295.7164033199877
 51
326.0171892889825
  0
ARC
  5
234
330
449
100
AcDbEntity
  8
DATA
  6
Continuous
 62
     7
100
AcDbCircle
 10
160.3359605143386
 20
-261.1457383916279
 30
0.0
 40
0.2489395077601305
100
AcDbArc
 50
269.6405027393317
 51
296.4644625488702
  0
ARC
  5
235
330
449
100
AcDbEntity
  8
DATA
  6
Continuous
 62
     7
100
AcDbCircle
 10
161.0813579133319
 20
-261.1999183771589
 30
0.0
 40
0.1719593568651586
100
AcDbArc
 50
145.5581888882285
 51
180.0271962199131
  0
ARC
  5
236
330
449
100
AcDbEntity
  8
DATA
  6
Continuous
 62
     7
100
AcDbCircle
 10
161.1123023440142
 20
-261.219115849004
 30
0.0
 40
0.2083434395956772
100
AcDbArc
 50
115.7164033199876
 51
146.0171892889825
  0
ARC
  5
237
330
449
100
AcDbEntity
  8
DATA
  6
Continuous
 62
     7
100
AcDbCircle
 10
161.1328366373384
 20
-261.2542616083721
 30
0.0
 40
0.2489395077601874
100
AcDbArc
 50
89.6405027393318
 51
116.4644625488644
  0
ARC
  5
238
330
449
100
AcDbEntity
  8
DATA
  6
Continuous
 62
     7
100
AcDbCircle
 10
161.187439238345
 20
-261.1999183771589
 30
0.0
 40
0.1719593568651288
100
AcDbArc
 50
359.9728037800869
 51
34.44181111178216
  0
ARC
  5
239
330
449
100
AcDbEntity
  8
DATA
  6
Continuous
 62
     7
100
AcDbCircle
 10
161.1564948076628
 20
-261.219115849004
 30
0.0
 40
0.2083434395955982
100
AcDbArc
 50
33.98281071103493
 51
64.28359668004053
  0
ARC
  5
23A
330
449
100
AcDbEntity
  8
DATA
  6
Continuous
 62
     7
100
AcDbCircle
 10
161.1359605143386
 20
-261.2542616083721
 30
0.0
 40
0.2489395077601287
100
AcDbArc
 50
63.53553745115905
 51
90.35949726066823
  0
ARC
  5
23B
330
449
100
AcDbEntity
  8
DATA
  6
Continuous
 62
     7
100
AcDbCircle
 10
161.0813579133319
 20
-261.2000816228412
 30
0.0
 40
0.1719593568651288
100
AcDbArc
 50
179.9728037801058
 51
214.4418111117715
  0
ARC
  5
23C
330
449
100
AcDbEntity
  8
DATA
  6
Continuous
 62
     7
100
AcDbCircle
 10
161.1123023440142
 20
-261.180884150996
 30
0.0
 40
0.2083434395956925
100
AcDbArc
 50
213.9828107110175
 51
244.2835966800124
  0
ARC
  5
23D
330
449
100
AcDbEntity
  8
DATA
  6
Continuous
 62
     7
100
AcDbCircle
 10
161.1328366373384
 20
-261.1457383916279
 30
0.0
 40
0.2489395077601285
100
AcDbArc
 50
243.5355374511298
 51
270.3594972606684
  0
ARC
  5
23E
330
449
100
AcDbEntity
  8
DATA
  6
Continuous
 62
     7
100
AcDbCircle
 10
161.187439238345
 20
-261.2000816228412
 30
0.0
 40
0.1719593568651117
100
AcDbArc
 50
325.5581888882177
 51
0.0271962198941651
  0
ARC
  5
23F
330
449
100
AcDbEntity
  8
DATA
  6
Continuous
 62
     7
100
AcDbCircle
 10
161.1564948076628
 20
-261.180884150996
 30
0.0
 40
0.2083434395956278
100
AcDbArc
 50
295.7164033199595
 51
326.0171892889651
  0
ARC
  5
240
330
449
100
AcDbEntity
  8
DATA
  6
Continuous
 62
     7
100
AcDbCircle
 10
161.1359605143386
 20
-261.1457383916279
 30
0.0
 40
0.2489395077601305
100
AcDbArc
 50
269.6405027393317
 51
296.4644625488468
  0
ARC
  5
241
330
449
100
AcDbEntity
  8
DATA
  6
Continuous
 62
     7
100
AcDbCircle
 10
160.2336704229099
 20
-260.6632035155389
 30
0.0
 40
0.1242832178072275
100
AcDbArc
 50
139.2323109443573
 51
179.2249513198244
  0
ARC
  5
242
330
449
100
AcDbEntity
  8
DATA
  6
Continuous
 62
     7
100
AcDbCircle
 10
160.2913104786753
 20
-260.7095016723184
 30
0.0
 40
0.1981868046203508
100
AcDbArc
 50
110.5016731747063
 51
139.9764915568746
  0
ARC
  5
243
330
449
100
AcDbEntity
  8
DATA
  6
Continuous
 62
     7
100
AcDbCircle
 10
160.3318213466195
 20
-260.7967660159238
 30
0.0
 40
0.2942049353630086
100
AcDbArc
 50
89.49808372342122
 51
111.9394497688815
  0
ARC
  5
244
330
449
100
AcDbEntity
  8
DATA
  6
Continuous
 62
     7
100
AcDbCircle
 10
160.435126728767
 20
-260.6632035155389
 30
0.0
 40
0.1242832178072257
100
AcDbArc
 50
0.7750486801755616
 51
40.7676890556255
  0
ARC
  5
245
330
449
100
AcDbEntity
  8
DATA
  6
Continuous
 62
     7
100
AcDbCircle
 10
160.3774866730016
 20
-260.7095016723184
 30
0.0
 40
0.1981868046204151
100
AcDbArc
 50
40.02350844310424
 51
69.49832682526289
  0
ARC
  5
246
330
449
100
AcDbEntity
  8
DATA
  6
Continuous
 62
     7
100
AcDbCircle
 10
160.3369758050575
 20
-260.7967660159238
 30
0.0
 40
0.2942049353630486
100
AcDbArc
 50
68.06055023110828
 51
90.50191627658987
  0
ARC
  5
247
330
449
100
AcDbEntity
  8
DATA
  6
Continuous
 62
     7
100
AcDbCircle
 10
160.2336704229099
 20
-260.6598412222912
 30
0.0
 40
0.1242832178072257
100
AcDbArc
 50
180.7750486801756
 51
220.7676890556228
  0
ARC
  5
248
330
449
100
AcDbEntity
  8
DATA
  6
Continuous
 62
     7
100
AcDbCircle
 10
160.2913104786753
 20
-260.6135430655116
 30
0.0
 40
0.198186804620328
100
AcDbArc
 50
220.0235084431254
 51
249.4983268252937
  0
ARC
  5
249
330
449
100
AcDbEntity
  8
DATA
  6
Continuous
 62
     7
100
AcDbCircle
 10
160.3318213466195
 20
-260.5262787219061
 30
0.0
 40
0.2942049353630801
100
AcDbArc
 50
248.0605502311227
 51
270.5019162765787
  0
ARC
  5
24A
330
449
100
AcDbEntity
  8
DATA
  6
Continuous
 62
     7
100
AcDbCircle
 10
160.435126728767
 20
-260.6598412222912
 30
0.0
 40
0.1242832178072334
100
AcDbArc
 50
319.2323109443944
 51
359.2249513198244
  0
ARC
  5
24B
330
449
100
AcDbEntity
  8
DATA
  6
Continuous
 62
     7
100
AcDbCircle
 10
160.3774866730016
 20
-260.6135430655116
 30
0.0
 40
0.1981868046203906
100
AcDbArc
 50
290.5016731747371
 51
319.9764915568957
  0
ARC
  5
24C
330
449
100
AcDbEntity
  8
DATA
  6
Continuous
 62
     7
100
AcDbCircle
 10
160.3369758050575
 20
-260.5262787219061
 30
0.0
 40
0.294204935363066
100
AcDbArc
 50
269.4980837234102
 51
291.9394497688876
  0
ARC
  5
24D
330
449
100
AcDbEntity
  8
DATA
  6
Continuous
 62
     7
100
AcDbCircle
 10
161.03367042291
 20
-260.6632035155389
 30
0.0
 40
0.1242832178072705
100
AcDbArc
 50
139.2323109443745
 51
179.2249513198245
  0
ARC
  5
24E
330
449
100
AcDbEntity
  8
DATA
  6
Continuous
 62
     7
100
AcDbCircle
 10
161.0913104786753
 20
-260.7095016723184
 30
0.0
 40
0.1981868046203906
100
AcDbArc
 50
110.5016731747371
 51
139.9764915568957
  0
ARC
  5
24F
330
449
100
AcDbEntity
  8
DATA
  6
Continuous
 62
     7
100
AcDbCircle
 10
161.1318213466195
 20
-260.7967660159238
 30
0.0
 40
0.2942049353630091
100
AcDbArc
 50
89.49808372341014
 51
111.9394497688917
  0
ARC
  5
250
330
449
100
AcDbEntity
  8
DATA
  6
Continuous
 62
     7
100
AcDbCircle
 10
161.235126728767
 20
-260.6632035155389
 30
0.0
 40
0.1242832178072257
100
AcDbArc
 50
0.7750486801755616
 51
40.76768905564263
  0
ARC
  5
251
330
449
100
AcDbEntity
  8
DATA
  6
Continuous
 62
     7
100
AcDbCircle
 10
161.1774866730017
 20
-260.7095016723184
 30
0.0
 40
0.198186804620328
100
AcDbArc
 50
40.02350844312537
 51
69.49832682529368
  0
ARC
  5
252
330
449
100
AcDbEntity
  8
DATA
  6
Continuous
 62
     7
100
AcDbCircle
 10
161.1369758050574
 20
-260.7967660159238
 30
0.0
 40
0.2942049353630272
100
AcDbArc
 50
68.06055023111854
 51
90.50191627657877
  0
ARC
  5
253
330
449
100
AcDbEntity
  8
DATA
  6
Continuous
 62
     7
100
AcDbCircle
 10
161.03367042291
 20
-260.6598412222912
 30
0.0
 40
0.1242832178072257
100
AcDbArc
 50
180.7750486801756
 51
220.7676890556057
  0
ARC
  5
254
330
449
100
AcDbEntity
  8
DATA
  6
Continuous
 62
     7
100
AcDbCircle
 10
161.0913104786753
 20
-260.6135430655116
 30
0.0
 40
0.1981868046204151
100
AcDbArc
 50
220.0235084431043
 51
249.4983268252628
  0
ARC
  5
255
330
449
100
AcDbEntity
  8
DATA
  6
Continuous
 62
     7
100
AcDbCircle
 10
161.1318213466195
 20
-260.5262787219061
 30
0.0
 40
0.2942049353631013
100
AcDbArc
 50
248.0605502311124
 51
270.5019162765897
  0
ARC
  5
256
330
449
100
AcDbEntity
  8
DATA
  6
Continuous
 62
     7
100
AcDbCircle
 10
161.235126728767
 20
-260.6598412222912
 30
0.0
 40
0.1242832178071904
100
AcDbArc
 50
319.2323109443773
 51
359.2249513198244
  0
ARC
  5
257
330
449
100
AcDbEntity
  8
DATA
  6
Continuous
 62
     7
100
AcDbCircle
 10
161.1774866730017
 20
-260.6135430655116
 30
0.0
 40
0.1981868046203508
100
AcDbArc
 50
290.5016731747063
 51
319.9764915568746
  0
ARC
  5
258
330
449
100
AcDbEntity
  8
DATA
  6
Continuous
 62
     7
100
AcDbCircle
 10
161.1369758050574
 20
-260.5262787219061
 30
0.0
 40
0.2942049353630655
100
AcDbArc
 50
269.4980837234213
 51
291.9394497688773
  0
ARC
  5
259
330
449
100
AcDbEntity
  8
DATA
  6
Continuous
 62
     7
100
AcDbCircle
 10
160.1819271578382
 20
-260.2510550405738
 30
0.0
 40
0.0725796082927006
100
AcDbArc
 50
125.7302429542011
 51
177.8514138263548
  0
ARC
  5
25A
330
449
100
AcDbEntity
  8
DATA
  6
Continuous
 62
     7
100
AcDbCircle
 10
160.278753325126
 20
-260.3678163317129
 30
0.0
 40
0.224149250594801
100
AcDbArc
 50
104.6934189055854
 51
128.3936908098859
  0
ARC
  5
25B
330
449
100
AcDbEntity
  8
DATA
  6
Continuous
 62
     7
100
AcDbCircle
 10
160.332686446188
 20
-260.5509267656629
 30
0.0
 40
0.4149908473630123
100
AcDbArc
 50
89.76361386793605
 51
105.4837230794946
  0
ARC
  5
25C
330
449
100
AcDbEntity
  8
DATA
  6
Continuous
 62
     7
100
AcDbCircle
 10
160.4868699938388
 20
-260.2510550405738
 30
0.0
 40
0.0725796082926975
100
AcDbArc
 50
2.148586173646866
 51
54.26975704579893
  0
ARC
  5
25D
330
449
100
AcDbEntity
  8
DATA
  6
Continuous
 62
     7
100
AcDbCircle
 10
160.3900438265509
 20
-260.3678163317129
 30
0.0
 40
0.2241492505947779
100
AcDbArc
 50
51.60630919010269
 51
75.30658109440054
  0
ARC
  5
25E
330
449
100
AcDbEntity
  8
DATA
  6
Continuous
 62
     7
100
AcDbCircle
 10
160.336110705489
 20
-260.5509267656629
 30
0.0
 40
0.4149908473630778
100
AcDbArc
 50
74.51627692049787
 51
90.23638613207179
  0
ARC
  5
25F
330
449
100
AcDbEntity
  8
DATA
  6
Continuous
 62
     7
100
AcDbCircle
 10
160.1819271578382
 20
-260.2456128597471
 30
0.0
 40
0.0725796082927543
100
AcDbArc
 50
182.1485861736452
 51
234.2697570457989
  0
ARC
  5
260
330
449
100
AcDbEntity
  8
DATA
  6
Continuous
 62
     7
100
AcDbCircle
 10
160.278753325126
 20
-260.1288515686081
 30
0.0
 40
0.2241492505947426
100
AcDbArc
 50
231.6063091901141
 51
255.3065810944146
  0
ARC
  5
261
330
449
100
AcDbEntity
  8
DATA
  6
Continuous
 62
     7
100
AcDbCircle
 10
160.332686446188
 20
-259.9457411346581
 30
0.0
 40
0.4149908473630627
100
AcDbArc
 50
254.5162769205054
 51
270.2363861320639
  0
ARC
  5
262
330
449
100
AcDbEntity
  8
DATA
  6
Continuous
 62
     7
100
AcDbCircle
 10
160.4868699938388
 20
-260.2456128597471
 30
0.0
 40
0.0725796082927006
100
AcDbArc
 50
305.7302429542011
 51
357.8514138263532
  0
ARC
  5
263
330
449
100
AcDbEntity
  8
DATA
  6
Continuous
 62
     7
100
AcDbCircle
 10
160.3900438265509
 20
-260.1288515686081
 30
0.0
 40
0.2241492505948154
100
AcDbArc
 50
284.6934189055994
 51
308.3936908098972
  0
ARC
  5
264
330
449
100
AcDbEntity
  8
DATA
  6
Continuous
 62
     7
100
AcDbCircle
 10
160.336110705489
 20
-259.9457411346581
 30
0.0
 40
0.4149908473630126
100
AcDbArc
 50
269.7636138679282
 51
285.4837230795022
  0
ARC
  5
265
330
449
100
AcDbEntity
  8
DATA
  6
Continuous
 62
     7
100
AcDbCircle
 10
160.9819271578382
 20
-260.2510550405738
 30
0.0
 40
0.0725796082927006
100
AcDbArc
 50
125.7302429542011
 51
177.8514138263531
  0
ARC
  5
266
330
449
100
AcDbEntity
  8
DATA
  6
Continuous
 62
     7
100
AcDbCircle
 10
161.078753325126
 20
-260.3678163317129
 30
0.0
 40
0.2241492505948154
100
AcDbArc
 50
104.6934189055995
 51
128.3936908098973
  0
ARC
  5
267
330
449
100
AcDbEntity
  8
DATA
  6
Continuous
 62
     7
100
AcDbCircle
 10
161.1326864461879
 20
-260.5509267656629
 30
0.0
 40
0.4149908473630126
100
AcDbArc
 50
89.76361386792824
 51
105.4837230795021
  0
ARC
  5
268
330
449
100
AcDbEntity
  8
DATA
  6
Continuous
 62
     7
100
AcDbCircle
 10
161.2868699938387
 20
-260.2510550405738
 30
0.0
 40
0.0725796082927543
100
AcDbArc
 50
2.148586173645184
 51
54.26975704579893
  0
ARC
  5
269
330
449
100
AcDbEntity
  8
DATA
  6
Continuous
 62
     7
100
AcDbCircle
 10
161.1900438265509
 20
-260.3678163317129
 30
0.0
 40
0.2241492505947426
100
AcDbArc
 50
51.60630919011407
 51
75.30658109441458
  0
ARC
  5
26A
330
449
100
AcDbEntity
  8
DATA
  6
Continuous
 62
     7
100
AcDbCircle
 10
161.136110705489
 20
-260.5509267656629
 30
0.0
 40
0.4149908473630627
100
AcDbArc
 50
74.51627692050542
 51
90.23638613206392
  0
ARC
  5
26B
330
449
100
AcDbEntity
  8
DATA
  6
Continuous
 62
     7
100
AcDbCircle
 10
160.9819271578382
 20
-260.2456128597471
 30
0.0
 40
0.0725796082926975
100
AcDbArc
 50
182.1485861736469
 51
234.2697570457989
  0
ARC
  5
26C
330
449
100
AcDbEntity
  8
DATA
  6
Continuous
 62
     7
100
AcDbCircle
 10
161.078753325126
 20
-260.1288515686081
 30
0.0
 40
0.2241492505947779
100
AcDbArc
 50
231.6063091901027
 51
255.3065810944005
  0
ARC
  5
26D
330
449
100
AcDbEntity
  8
DATA
  6
Continuous
 62
     7
100
AcDbCircle
 10
161.1326864461879
 20
-259.9457411346581
 30
0.0
 40
0.4149908473630778
100
AcDbArc
 50
254.5162769204978
 51
270.2363861320717
  0
ARC
  5
26E
330
449
100
AcDbEntity
  8
DATA
  6
Continuous
 62
     7
100
AcDbCircle
 10
161.2868699938387
 20
-260.2456128597471
 30
0.0
 40
0.0725796082927006
100
AcDbArc
 50
305.7302429542011
 51
357.8514138263548
  0
ARC
  5
26F
330
449
100
AcDbEntity
  8
DATA
  6
Continuous
 62
     7
100
AcDbCircle
 10
161.1900438265509
 20
-260.1288515686081
 30
0.0
 40
0.224149250594801
100
AcDbArc
 50
284.6934189055854
 51
308.3936908098859
  0
ARC
  5
270
330
449
100
AcDbEntity
  8
DATA
  6
Continuous
 62
     7
100
AcDbCircle
 10
161.136110705489
 20
-259.9457411346581
 30
0.0
 40
0.4149908473630123
100
AcDbArc
 50
269.7636138679361
 51
285.4837230794945
  0
ARC
  5
271
330
449
100
AcDbEntity
  8
DATA
  6
Continuous
 62
     7
100
AcDbCircle
 10
160.2813579133319
 20
-263.8000816228411
 30
0.0
 40
0.1719593568651288
100
AcDbArc
 50
179.9728037800868
 51
214.4418111117822
  0
ARC
  5
272
330
449
100
AcDbEntity
  8
DATA
  6
Continuous
 62
     7
100
AcDbCircle
 10
160.3123023440141
 20
-263.780884150996
 30
0.0
 40
0.2083434395955982
100
AcDbArc
 50
213.9828107110349
 51
244.2835966800404
  0
ARC
  5
273
330
449
100
AcDbEntity
  8
DATA
  6
Continuous
 62
     7
100
AcDbCircle
 10
160.3328366373383
 20
-263.7457383916278
 30
0.0
 40
0.2489395077601287
100
AcDbArc
 50
243.5355374511591
 51
270.3594972606683
  0
ARC
  5
274
330
449
100
AcDbEntity
  8
DATA
  6
Continuous
 62
     7
100
AcDbCircle
 10
160.387439238345
 20
-263.8000816228411
 30
0.0
 40
0.1719593568651586
100
AcDbArc
 50
325.5581888882285
 51
0.027196219913094
  0
ARC
  5
275
330
449
100
AcDbEntity
  8
DATA
  6
Continuous
 62
     7
100
AcDbCircle
 10
160.3564948076628
 20
-263.780884150996
 30
0.0
 40
0.2083434395956772
100
AcDbArc
 50
295.7164033199877
 51
326.0171892889825
  0
ARC
  5
276
330
449
100
AcDbEntity
  8
DATA
  6
Continuous
 62
     7
100
AcDbCircle
 10
160.3359605143386
 20
-263.7457383916278
 30
0.0
 40
0.2489395077601874
100
AcDbArc
 50
269.6405027393317
 51
296.4644625488644
  0
ARC
  5
277
330
449
100
AcDbEntity
  8
DATA
  6
Continuous
 62
     7
100
AcDbCircle
 10
160.2813579133319
 20
-263.7999183771589
 30
0.0
 40
0.1719593568651117
100
AcDbArc
 50
145.5581888882178
 51
180.0271962198942
  0
ARC
  5
278
330
449
100
AcDbEntity
  8
DATA
  6
Continuous
 62
     7
100
AcDbCircle
 10
160.3123023440141
 20
-263.819115849004
 30
0.0
 40
0.2083434395956278
100
AcDbArc
 50
115.7164033199595
 51
146.017189288965
  0
ARC
  5
279
330
449
100
AcDbEntity
  8
DATA
  6
Continuous
 62
     7
100
AcDbCircle
 10
160.3328366373383
 20
-263.8542616083721
 30
0.0
 40
0.2489395077601305
100
AcDbArc
 50
89.64050273933171
 51
116.4644625488468
  0
ARC
  5
27A
330
449
100
AcDbEntity
  8
DATA
  6
Continuous
 62
     7
100
AcDbCircle
 10
160.387439238345
 20
-263.7999183771589
 30
0.0
 40
0.1719593568651288
100
AcDbArc
 50
359.9728037801057
 51
34.44181111177142
  0
ARC
  5
27B
330
449
100
AcDbEntity
  8
DATA
  6
Continuous
 62
     7
100
AcDbCircle
 10
160.3564948076628
 20
-263.819115849004
 30
0.0
 40
0.2083434395956925
100
AcDbArc
 50
33.98281071101747
 51
64.28359668001236
  0
ARC
  5
27C
330
449
100
AcDbEntity
  8
DATA
  6
Continuous
 62
     7
100
AcDbCircle
 10
160.3359605143386
 20
-263.8542616083721
 30
0.0
 40
0.2489395077601285
100
AcDbArc
 50
63.5355374511298
 51
90.3594972606683
  0
ARC
  5
27D
330
449
100
AcDbEntity
  8
DATA
  6
Continuous
 62
     7
100
AcDbCircle
 10
161.0813579133319
 20
-263.8000816228411
 30
0.0
 40
0.1719593568651288
100
AcDbArc
 50
179.9728037800868
 51
214.4418111117715
  0
ARC
  5
27E
330
449
100
AcDbEntity
  8
DATA
  6
Continuous
 62
     7
100
AcDbCircle
 10
161.1123023440142
 20
-263.780884150996
 30
0.0
 40
0.2083434395956925
100
AcDbArc
 50
213.9828107110175
 51
244.2835966800124
  0
ARC
  5
27F
330
449
100
AcDbEntity
  8
DATA
  6
Continuous
 62
     7
100
AcDbCircle
 10
161.1328366373384
 20
-263.7457383916278
 30
0.0
 40
0.2489395077601794
100
AcDbArc
 50
243.5355374511356
 51
270.3594972606683
  0
ARC
  5
280
330
449
100
AcDbEntity
  8
DATA
  6
Continuous
 62
     7
100
AcDbCircle
 10
161.187439238345
 20
-263.8000816228411
 30
0.0
 40
0.1719593568651117
100
AcDbArc
 50
325.5581888882177
 51
0.027196219913094
  0
ARC
  5
281
330
449
100
AcDbEntity
  8
DATA
  6
Continuous
 62
     7
100
AcDbCircle
 10
161.1564948076628
 20
-263.780884150996
 30
0.0
 40
0.2083434395956278
100
AcDbArc
 50
295.7164033199595
 51
326.0171892889651
  0
ARC
  5
282
330
449
100
AcDbEntity
  8
DATA
  6
Continuous
 62
     7
100
AcDbCircle
 10
161.1359605143386
 20
-263.7457383916278
 30
0.0
 40
0.2489395077601874
100
AcDbArc
 50
269.6405027393317
 51
296.4644625488408
  0
ARC
  5
283
330
449
100
AcDbEntity
  8
DATA
  6
Continuous
 62
     7
100
AcDbCircle
 10
161.0813579133319
 20
-263.7999183771589
 30
0.0
 40
0.1719593568651586
100
AcDbArc
 50
145.5581888882285
 51
180.0271962198942
  0
ARC
  5
284
330
449
100
AcDbEntity
  8
DATA
  6
Continuous
 62
     7
100
AcDbCircle
 10
161.1123023440142
 20
-263.819115849004
 30
0.0
 40
0.2083434395956772
100
AcDbArc
 50
115.7164033199876
 51
146.0171892889825
  0
ARC
  5
285
330
449
100
AcDbEntity
  8
DATA
  6
Continuous
 62
     7
100
AcDbCircle
 10
161.1328366373384
 20
-263.8542616083721
 30
0.0
 40
0.2489395077601305
100
AcDbArc
 50
89.64050273933171
 51
116.4644625488702
  0
ARC
  5
286
330
449
100
AcDbEntity
  8
DATA
  6
Continuous
 62
     7
100
AcDbCircle
 10
161.187439238345
 20
-263.7999183771589
 30
0.0
 40
0.1719593568651288
100
AcDbArc
 50
359.9728037801057
 51
34.44181111178216
  0
ARC
  5
287
330
449
100
AcDbEntity
  8
DATA
  6
Continuous
 62
     7
100
AcDbCircle
 10
161.1564948076628
 20
-263.819115849004
 30
0.0
 40
0.2083434395955982
100
AcDbArc
 50
33.98281071103493
 51
64.28359668004053
  0
ARC
  5
288
330
449
100
AcDbEntity
  8
DATA
  6
Continuous
 62
     7
100
AcDbCircle
 10
161.1359605143386
 20
-263.8542616083721
 30
0.0
 40
0.2489395077600778
100
AcDbArc
 50
63.53553745115321
 51
90.3594972606683
  0
ARC
  5
289
330
449
100
AcDbEntity
  8
DATA
  6
Continuous
 62
     7
100
AcDbCircle
 10
160.2336704229099
 20
-264.3367964844612
 30
0.0
 40
0.1242832178072257
100
AcDbArc
 50
180.7750486801756
 51
220.7676890556427
  0
ARC
  5
28A
330
449
100
AcDbEntity
  8
DATA
  6
Continuous
 62
     7
100
AcDbCircle
 10
160.2913104786753
 20
-264.2904983276816
 30
0.0
 40
0.198186804620328
100
AcDbArc
 50
220.0235084431254
 51
249.4983268252937
  0
ARC
  5
28B
330
449
100
AcDbEntity
  8
DATA
  6
Continuous
 62
     7
100
AcDbCircle
 10
160.3318213466195
 20
-264.2032339840762
 30
0.0
 40
0.2942049353630272
100
AcDbArc
 50
248.0605502311186
 51
270.5019162765788
  0
ARC
  5
28C
330
449
100
AcDbEntity
  8
DATA
  6
Continuous
 62
     7
100
AcDbCircle
 10
160.435126728767
 20
-264.3367964844612
 30
0.0
 40
0.1242832178072705
100
AcDbArc
 50
319.2323109443745
 51
359.2249513198244
  0
ARC
  5
28D
330
449
100
AcDbEntity
  8
DATA
  6
Continuous
 62
     7
100
AcDbCircle
 10
160.3774866730016
 20
-264.2904983276816
 30
0.0
 40
0.1981868046203906
100
AcDbArc
 50
290.5016731747371
 51
319.9764915568957
  0
ARC
  5
28E
330
449
100
AcDbEntity
  8
DATA
  6
Continuous
 62
     7
100
AcDbCircle
 10
160.3369758050575
 20
-264.2032339840762
 30
0.0
 40
0.2942049353630091
100
AcDbArc
 50
269.4980837234101
 51
291.9394497688917
  0
ARC
  5
28F
330
449
100
AcDbEntity
  8
DATA
  6
Continuous
 62
     7
100
AcDbCircle
 10
160.2336704229099
 20
-264.3401587777088
 30
0.0
 40
0.1242832178071904
100
AcDbArc
 50
139.2323109443772
 51
179.2249513198244
  0
ARC
  5
290
330
449
100
AcDbEntity
  8
DATA
  6
Continuous
 62
     7
100
AcDbCircle
 10
160.2913104786753
 20
-264.3864569344884
 30
0.0
 40
0.1981868046203508
100
AcDbArc
 50
110.5016731747063
 51
139.9764915568746
  0
ARC
  5
291
330
449
100
AcDbEntity
  8
DATA
  6
Continuous
 62
     7
100
AcDbCircle
 10
160.3318213466195
 20
-264.4737212780939
 30
0.0
 40
0.2942049353630655
100
AcDbArc
 50
89.49808372342129
 51
111.9394497688773
  0
ARC
  5
292
330
449
100
AcDbEntity
  8
DATA
  6
Continuous
 62
     7
100
AcDbCircle
 10
160.435126728767
 20
-264.3401587777088
 30
0.0
 40
0.1242832178072257
100
AcDbArc
 50
0.7750486801755616
 51
40.76768905560567
  0
ARC
  5
293
330
449
100
AcDbEntity
  8
DATA
  6
Continuous
 62
     7
100
AcDbCircle
 10
160.3774866730016
 20
-264.3864569344884
 30
0.0
 40
0.1981868046204151
100
AcDbArc
 50
40.02350844310424
 51
69.49832682526289
  0
ARC
  5
294
330
449
100
AcDbEntity
  8
DATA
  6
Continuous
 62
     7
100
AcDbCircle
 10
160.3369758050575
 20
-264.4737212780939
 30
0.0
 40
0.2942049353631013
100
AcDbArc
 50
68.06055023111243
 51
90.5019162765898
  0
ARC
  5
295
330
449
100
AcDbEntity
  8
DATA
  6
Continuous
 62
     7
100
AcDbCircle
 10
161.03367042291
 20
-264.3367964844612
 30
0.0
 40
0.1242832178072257
100
AcDbArc
 50
180.7750486801756
 51
220.7676890556255
  0
ARC
  5
296
330
449
100
AcDbEntity
  8
DATA
  6
Continuous
 62
     7
100
AcDbCircle
 10
161.0913104786753
 20
-264.2904983276816
 30
0.0
 40
0.1981868046204151
100
AcDbArc
 50
220.0235084431043
 51
249.4983268252628
  0
ARC
  5
297
330
449
100
AcDbEntity
  8
DATA
  6
Continuous
 62
     7
100
AcDbCircle
 10
161.1318213466195
 20
-264.2032339840762
 30
0.0
 40
0.2942049353630486
100
AcDbArc
 50
248.0605502311083
 51
270.5019162765899
  0
ARC
  5
298
330
449
100
AcDbEntity
  8
DATA
  6
Continuous
 62
     7
100
AcDbCircle
 10
161.235126728767
 20
-264.3367964844612
 30
0.0
 40
0.1242832178072275
100
AcDbArc
 50
319.2323109443574
 51
359.2249513198244
  0
ARC
  5
299
330
449
100
AcDbEntity
  8
DATA
  6
Continuous
 62
     7
100
AcDbCircle
 10
161.1774866730017
 20
-264.2904983276816
 30
0.0
 40
0.1981868046203508
100
AcDbArc
 50
290.5016731747063
 51
319.9764915568746
  0
ARC
  5
29A
330
449
100
AcDbEntity
  8
DATA
  6
Continuous
 62
     7
100
AcDbCircle
 10
161.1369758050574
 20
-264.2032339840762
 30
0.0
 40
0.2942049353630086
100
AcDbArc
 50
269.4980837234212
 51
291.9394497688815
  0
ARC
  5
29B
330
449
100
AcDbEntity
  8
DATA
  6
Continuous
 62
     7
100
AcDbCircle
 10
161.03367042291
 20
-264.3401587777088
 30
0.0
 40
0.1242832178072334
100
AcDbArc
 50
139.2323109443943
 51
179.2249513198244
  0
ARC
  5
29C
330
449
100
AcDbEntity
  8
DATA
  6
Continuous
 62
     7
100
AcDbCircle
 10
161.0913104786753
 20
-264.3864569344884
 30
0.0
 40
0.1981868046203906
100
AcDbArc
 50
110.5016731747371
 51
139.9764915568957
  0
ARC
  5
29D
330
449
100
AcDbEntity
  8
DATA
  6
Continuous
 62
     7
100
AcDbCircle
 10
161.1318213466195
 20
-264.4737212780939
 30
0.0
 40
0.294204935363066
100
AcDbArc
 50
89.49808372341022
 51
111.9394497688876
  0
ARC
  5
29E
330
449
100
AcDbEntity
  8
DATA
  6
Continuous
 62
     7
100
AcDbCircle
 10
161.235126728767
 20
-264.3401587777088
 30
0.0
 40
0.1242832178072257
100
AcDbArc
 50
0.7750486801755616
 51
40.76768905562278
  0
ARC
  5
29F
330
449
100
AcDbEntity
  8
DATA
  6
Continuous
 62
     7
100
AcDbCircle
 10
161.1774866730017
 20
-264.3864569344884
 30
0.0
 40
0.198186804620328
100
AcDbArc
 50
40.02350844312537
 51
69.49832682529368
  0
ARC
  5
2A0
330
449
100
AcDbEntity
  8
DATA
  6
Continuous
 62
     7
100
AcDbCircle
 10
161.1369758050574
 20
-264.4737212780939
 30
0.0
 40
0.2942049353630801
100
AcDbArc
 50
68.06055023112268
 51
90.5019162765787
  0
ARC
  5
2A1
330
449
100
AcDbEntity
  8
DATA
  6
Continuous
 62
     7
100
AcDbCircle
 10
160.1819271578382
 20
-264.7489449594262
 30
0.0
 40
0.0725796082927543
100
AcDbArc
 50
182.1485861736452
 51
234.2697570457989
  0
ARC
  5
2A2
330
449
100
AcDbEntity
  8
DATA
  6
Continuous
 62
     7
100
AcDbCircle
 10
160.278753325126
 20
-264.6321836682872
 30
0.0
 40
0.2241492505947426
100
AcDbArc
 50
231.6063091901141
 51
255.3065810944146
  0
ARC
  5
2A3
330
449
100
AcDbEntity
  8
DATA
  6
Continuous
 62
     7
100
AcDbCircle
 10
160.332686446188
 20
-264.4490732343371
 30
0.0
 40
0.4149908473630627
100
AcDbArc
 50
254.5162769205054
 51
270.2363861320639
  0
ARC
  5
2A4
330
449
100
AcDbEntity
  8
DATA
  6
Continuous
 62
     7
100
AcDbCircle
 10
160.4868699938388
 20
-264.7489449594262
 30
0.0
 40
0.0725796082927006
100
AcDbArc
 50
305.7302429542011
 51
357.8514138263532
  0
ARC
  5
2A5
330
449
100
AcDbEntity
  8
DATA
  6
Continuous
 62
     7
100
AcDbCircle
 10
160.3900438265509
 20
-264.6321836682872
 30
0.0
 40
0.2241492505948154
100
AcDbArc
 50
284.6934189055994
 51
308.3936908098972
  0
ARC
  5
2A6
330
449
100
AcDbEntity
  8
DATA
  6
Continuous
 62
     7
100
AcDbCircle
 10
160.336110705489
 20
-264.4490732343371
 30
0.0
 40
0.4149908473630126
100
AcDbArc
 50
269.7636138679282
 51
285.4837230795022
  0
ARC
  5
2A7
330
449
100
AcDbEntity
  8
DATA
  6
Continuous
 62
     7
100
AcDbCircle
 10
160.1819271578382
 20
-264.7543871402529
 30
0.0
 40
0.0725796082927006
100
AcDbArc
 50
125.7302429542011
 51
177.8514138263548
  0
ARC
  5
2A8
330
449
100
AcDbEntity
  8
DATA
  6
Continuous
 62
     7
100
AcDbCircle
 10
160.278753325126
 20
-264.8711484313919
 30
0.0
 40
0.224149250594801
100
AcDbArc
 50
104.6934189055854
 51
128.3936908098859
  0
ARC
  5
2A9
330
449
100
AcDbEntity
  8
DATA
  6
Continuous
 62
     7
100
AcDbCircle
 10
160.332686446188
 20
-265.0542588653419
 30
0.0
 40
0.4149908473630123
100
AcDbArc
 50
89.76361386793605
 51
105.4837230794946
  0
ARC
  5
2AA
330
449
100
AcDbEntity
  8
DATA
  6
Continuous
 62
     7
100
AcDbCircle
 10
160.4868699938388
 20
-264.7543871402529
 30
0.0
 40
0.0725796082926975
100
AcDbArc
 50
2.148586173646866
 51
54.26975704579893
  0
ARC
  5
2AB
330
449
100
AcDbEntity
  8
DATA
  6
Continuous
 62
     7
100
AcDbCircle
 10
160.3900438265509
 20
-264.8711484313919
 30
0.0
 40
0.2241492505947779
100
AcDbArc
 50
51.60630919010269
 51
75.30658109440054
  0
ARC
  5
2AC
330
449
100
AcDbEntity
  8
DATA
  6
Continuous
 62
     7
100
AcDbCircle
 10
160.336110705489
 20
-265.0542588653419
 30
0.0
 40
0.4149908473630778
100
AcDbArc
 50
74.51627692049787
 51
90.23638613207179
  0
ARC
  5
2AD
330
449
100
AcDbEntity
  8
DATA
  6
Continuous
 62
     7
100
AcDbCircle
 10
160.9819271578382
 20
-264.7489449594262
 30
0.0
 40
0.0725796082926975
100
AcDbArc
 50
182.1485861736469
 51
234.2697570457989
  0
ARC
  5
2AE
330
449
100
AcDbEntity
  8
DATA
  6
Continuous
 62
     7
100
AcDbCircle
 10
161.078753325126
 20
-264.6321836682872
 30
0.0
 40
0.2241492505947779
100
AcDbArc
 50
231.6063091901027
 51
255.3065810944005
  0
ARC
  5
2AF
330
449
100
AcDbEntity
  8
DATA
  6
Continuous
 62
     7
100
AcDbCircle
 10
161.1326864461879
 20
-264.4490732343371
 30
0.0
 40
0.4149908473630778
100
AcDbArc
 50
254.5162769204978
 51
270.2363861320717
  0
ARC
  5
2B0
330
449
100
AcDbEntity
  8
DATA
  6
Continuous
 62
     7
100
AcDbCircle
 10
161.2868699938387
 20
-264.7489449594262
 30
0.0
 40
0.0725796082927006
100
AcDbArc
 50
305.7302429542011
 51
357.8514138263548
  0
ARC
  5
2B1
330
449
100
AcDbEntity
  8
DATA
  6
Continuous
 62
     7
100
AcDbCircle
 10
161.1900438265509
 20
-264.6321836682872
 30
0.0
 40
0.224149250594801
100
AcDbArc
 50
284.6934189055854
 51
308.3936908098859
  0
ARC
  5
2B2
330
449
100
AcDbEntity
  8
DATA
  6
Continuous
 62
     7
100
AcDbCircle
 10
161.136110705489
 20
-264.4490732343371
 30
0.0
 40
0.4149908473630123
100
AcDbArc
 50
269.7636138679361
 51
285.4837230794945
  0
ARC
  5
2B3
330
449
100
AcDbEntity
  8
DATA
  6
Continuous
 62
     7
100
AcDbCircle
 10
160.9819271578382
 20
-264.7543871402529
 30
0.0
 40
0.0725796082927006
100
AcDbArc
 50
125.7302429542011
 51
177.8514138263531
  0
ARC
  5
2B4
330
449
100
AcDbEntity
  8
DATA
  6
Continuous
 62
     7
100
AcDbCircle
 10
161.078753325126
 20
-264.8711484313919
 30
0.0
 40
0.2241492505948154
100
AcDbArc
 50
104.6934189055995
 51
128.3936908098973
  0
ARC
  5
2B5
330
449
100
AcDbEntity
  8
DATA
  6
Continuous
 62
     7
100
AcDbCircle
 10
161.1326864461879
 20
-265.0542588653419
 30
0.0
 40
0.4149908473630126
100
AcDbArc
 50
89.76361386792824
 51
105.4837230795021
  0
ARC
  5
2B6
330
449
100
AcDbEntity
  8
DATA
  6
Continuous
 62
     7
100
AcDbCircle
 10
161.2868699938387
 20
-264.7543871402529
 30
0.0
 40
0.0725796082927543
100
AcDbArc
 50
2.148586173645184
 51
54.26975704579893
  0
ARC
  5
2B7
330
449
100
AcDbEntity
  8
DATA
  6
Continuous
 62
     7
100
AcDbCircle
 10
161.1900438265509
 20
-264.8711484313919
 30
0.0
 40
0.2241492505947426
100
AcDbArc
 50
51.60630919011407
 51
75.30658109441458
  0
ARC
  5
2B8
330
449
100
AcDbEntity
  8
DATA
  6
Continuous
 62
     7
100
AcDbCircle
 10
161.136110705489
 20
-265.0542588653419
 30
0.0
 40
0.4149908473630627
100
AcDbArc
 50
74.51627692050542
 51
90.23638613206392
  0
LINE
  5
2B9
330
449
100
AcDbEntity
  8
DATA
  6
Continuous
 62
     7
100
AcDbLine
 10
179.2787049938618
 20
-262.2085533063458
 30
0.0
 11
180.9585533063458
 21
-260.5287049938618
 31
0.0
  0
LINE
  5
2BA
330
449
100
AcDbEntity
  8
DATA
  6
Continuous
 62
     7
100
AcDbLine
 10
181.5414466936644
 20
-264.4712950061372
 30
0.0
 11
183.2212950061372
 21
-262.7914466936644
 31
0.0
  0
LINE
  5
2BB
330
449
100
AcDbEntity
  8
DATA
  6
Continuous
 62
     7
100
AcDbLine
 10
180.9742183924045
 20
-264.4728378824478
 30
0.0
 11
183.2228378824478
 21
-262.2242183924044
 31
0.0
  0
LINE
  5
2BC
330
449
100
AcDbEntity
  8
DATA
  6
Continuous
 62
     7
100
AcDbLine
 10
180.5222122768956
 20
-264.3591585730076
 30
0.0
 11
183.1091585730076
 21
-261.7722122768955
 31
0.0
  0
LINE
  5
2BD
330
449
100
AcDbEntity
  8
DATA
  6
Continuous
 62
     7
100
AcDbLine
 10
180.1479091042524
 20
-264.1677763207015
 30
0.0
 11
182.9177763207016
 21
-261.3979091042523
 31
0.0
  0
LINE
  5
2BE
330
449
100
AcDbEntity
  8
DATA
  6
Continuous
 62
     7
100
AcDbLine
 10
179.8357864376295
 20
-263.9142135623752
 30
0.0
 11
182.6642135623756
 21
-261.085786437629
 31
0.0
  0
LINE
  5
2BF
330
449
100
AcDbEntity
  8
DATA
  6
Continuous
 62
     7
100
AcDbLine
 10
179.5822236793018
 20
-263.6020908957536
 30
0.0
 11
182.3520908957536
 21
-260.8322236793017
 31
0.0
  0
LINE
  5
2C0
330
449
100
AcDbEntity
  8
DATA
  6
Continuous
 62
     7
100
AcDbLine
 10
179.3908414269945
 20
-263.2277877231116
 30
0.0
 11
181.9777877231115
 21
-260.6408414269946
 31
0.0
  0
LINE
  5
2C1
330
449
100
AcDbEntity
  8
DATA
  6
Continuous
 62
     7
100
AcDbLine
 10
179.277162117553
 20
-262.7757816076039
 30
0.0
 11
181.5257816076039
 21
-260.527162117553
 31
0.0
  0
LINE
  5
2C2
330
449
100
AcDbEntity
  8
DATA
  6
Continuous
 62
     7
100
AcDbLine
 10
180.9585533063458
 20
-264.4712950061383
 30
0.0
 11
179.2787049938618
 21
-262.7914466936543
 31
0.0
  0
LINE
  5
2C3
330
449
100
AcDbEntity
  8
DATA
  6
Continuous
 62
     7
100
AcDbLine
 10
183.2212950061372
 20
-262.2085533063356
 30
0.0
 11
181.5414466936644
 21
-260.5287049938628
 31
0.0
  0
LINE
  5
2C4
330
449
100
AcDbEntity
  8
DATA
  6
Continuous
 62
     7
100
AcDbLine
 10
183.2228378824478
 20
-262.7757816075955
 30
0.0
 11
180.9742183924045
 21
-260.5271621175522
 31
0.0
  0
LINE
  5
2C5
330
449
100
AcDbEntity
  8
DATA
  6
Continuous
 62
     7
100
AcDbLine
 10
183.1091585730075
 20
-263.2277877231045
 30
0.0
 11
180.5222122768956
 21
-260.6408414269925
 31
0.0
  0
LINE
  5
2C6
330
449
100
AcDbEntity
  8
DATA
  6
Continuous
 62
     7
100
AcDbLine
 10
182.9177763207016
 20
-263.6020908957477
 30
0.0
 11
180.1479091042524
 21
-260.8322236792985
 31
0.0
  0
LINE
  5
2C7
330
449
100
AcDbEntity
  8
DATA
  6
Continuous
 62
     7
100
AcDbLine
 10
182.6642135623752
 20
-263.9142135623706
 30
0.0
 11
179.835786437629
 21
-261.0857864376244
 31
0.0
  0
LINE
  5
2C8
330
449
100
AcDbEntity
  8
DATA
  6
Continuous
 62
     7
100
AcDbLine
 10
182.3520908957536
 20
-264.1677763206983
 30
0.0
 11
179.5822236793017
 21
-261.3979091042464
 31
0.0
  0
LINE
  5
2C9
330
449
100
AcDbEntity
  8
DATA
  6
Continuous
 62
     7
100
AcDbLine
 10
181.9777877231115
 20
-264.3591585730054
 30
0.0
 11
179.3908414269945
 21
-261.7722122768885
 31
0.0
  0
LINE
  5
2CA
330
449
100
AcDbEntity
  8
DATA
  6
Continuous
 62
     7
100
AcDbLine
 10
181.5257816076039
 20
-264.4728378824471
 30
0.0
 11
179.277162117553
 21
-262.2242183923962
 31
0.0
  0
LINE
  5
2CB
330
449
100
AcDbEntity
  8
DATA
  6
Continuous
 62
     7
100
AcDbLine
 10
163.1151734661784
 20
-163.3660347321843
 30
0.0
 11
167.1343985758385
 21
-166.6654027804441
 31
0.0
  0
LINE
  5
2CC
330
449
100
AcDbEntity
  8
DATA
  6
Continuous
 62
     7
100
AcDbLine
 10
156.6433361407457
 20
-171.2498993703637
 30
0.0
 11
160.6625612504058
 21
-174.5492674186235
 31
0.0
  0
LINE
  5
2CD
330
449
100
AcDbEntity
  8
DATA
  6
Continuous
 62
     7
100
AcDbLine
 10
156.6433361407457
 20
-171.2498993703637
 30
0.0
 11
163.1151734661784
 21
-163.3660347321843
 31
0.0
  0
LINE
  5
2CE
330
449
100
AcDbEntity
  8
DATA
  6
Continuous
 62
     7
100
AcDbLine
 10
160.6625612504058
 20
-174.5492674186235
 30
0.0
 11
167.1343985758385
 21
-166.6654027804441
 31
0.0
  0
CIRCLE
  5
2CF
330
449
100
AcDbEntity
  8
DATA
  6
Continuous
 62
     7
100
AcDbCircle
 10
160.8102278040533
 20
-170.2716285151004
 30
0.0
 40
0.2249999999999803
  0
ARC
  5
2D0
330
449
100
AcDbEntity
  8
DATA
  6
Continuous
 62
     7
100
AcDbCircle
 10
160.298740560809
 20
-169.8527709900351
 30
0.0
 40
0.2289955863016379
100
AcDbArc
 50
140.420172501298
 51
169.8156672484431
  0
ARC
  5
2D1
330
449
100
AcDbEntity
  8
DATA
  6
Continuous
 62
     7
100
AcDbCircle
 10
160.2754057069569
 20
-169.8534285615613
 30
0.0
 40
0.2061999183231174
100
AcDbArc
 50
168.4892489675691
 51
200.7168523231764
  0
ARC
  5
2D2
330
449
100
AcDbEntity
  8
DATA
  6
Continuous
 62
     7
100
AcDbCircle
 10
160.2786370436414
 20
-169.8574112129823
 30
0.0
 40
0.2078704674303082
100
AcDbArc
 50
199.3748921956568
 51
230.8298234883642
  0
ARC
  5
2D3
330
449
100
AcDbEntity
  8
DATA
  6
Continuous
 62
     7
100
AcDbCircle
 10
160.2997415933065
 20
-169.851551551982
 30
0.0
 40
0.2289955863016726
100
AcDbArc
 50
111.4194232066199
 51
140.8149179537493
  0
ARC
  5
2D4
330
449
100
AcDbEntity
  8
DATA
  6
Continuous
 62
     7
100
AcDbCircle
 10
160.2958401146778
 20
-169.8285357689382
 30
0.0
 40
0.2061999183231978
100
AcDbArc
 50
80.51823813190067
 51
112.7458414874925
  0
ARC
  5
2D5
330
449
100
AcDbEntity
  8
DATA
  6
Continuous
 62
     7
100
AcDbCircle
 10
160.3003760204109
 20
-169.8309292200636
 30
0.0
 40
0.2078704674303003
100
AcDbArc
 50
50.40526696670664
 51
81.86019825941199
  0
ARC
  5
2D6
330
449
100
AcDbEntity
  8
DATA
  6
Continuous
 62
     7
100
AcDbCircle
 10
160.2804620098659
 20
-169.8377661905265
 30
0.0
 40
0.2289955863016518
100
AcDbArc
 50
291.4194232066066
 51
320.8149179537637
  0
ARC
  5
2D7
330
449
100
AcDbEntity
  8
DATA
  6
Continuous
 62
     7
100
AcDbCircle
 10
160.2843634884946
 20
-169.8607819735704
 30
0.0
 40
0.2061999183231792
100
AcDbArc
 50
260.5182381318837
 51
292.7458414874779
  0
ARC
  5
2D8
330
449
100
AcDbEntity
  8
DATA
  6
Continuous
 62
     7
100
AcDbCircle
 10
160.2798275827614
 20
-169.858388522445
 30
0.0
 40
0.2078704674303584
100
AcDbArc
 50
230.4052669666996
 51
261.8601982593954
  0
ARC
  5
2D9
330
449
100
AcDbEntity
  8
DATA
  6
Continuous
 62
     7
100
AcDbCircle
 10
160.2814630423632
 20
-169.8365467524734
 30
0.0
 40
0.2289955863017074
100
AcDbArc
 50
320.4201725013216
 51
349.8156672484526
  0
ARC
  5
2DA
330
449
100
AcDbEntity
  8
DATA
  6
Continuous
 62
     7
100
AcDbCircle
 10
160.3047978962154
 20
-169.8358891809473
 30
0.0
 40
0.2061999183231731
100
AcDbArc
 50
348.4892489675722
 51
20.71685232319107
  0
ARC
  5
2DB
330
449
100
AcDbEntity
  8
DATA
  6
Continuous
 62
     7
100
AcDbCircle
 10
160.3015665595309
 20
-169.8319065295263
 30
0.0
 40
0.2078704674303459
100
AcDbArc
 50
19.37489219568641
 51
50.82982348836424
  0
CIRCLE
  5
2DC
330
449
100
AcDbEntity
  8
DATA
  6
Continuous
 62
     7
100
AcDbCircle
 10
161.317822888401
 20
-169.6532861905374
 30
0.0
 40
0.2250000000000164
  0
ARC
  5
2DD
330
449
100
AcDbEntity
  8
DATA
  6
Continuous
 62
     7
100
AcDbCircle
 10
160.8063356451567
 20
-169.234428665472
 30
0.0
 40
0.2289955863017074
100
AcDbArc
 50
140.4201725013216
 51
169.8156672484501
  0
ARC
  5
2DE
330
449
100
AcDbEntity
  8
DATA
  6
Continuous
 62
     7
100
AcDbCircle
 10
160.7830007913046
 20
-169.2350862369982
 30
0.0
 40
0.2061999183231174
100
AcDbArc
 50
168.4892489675691
 51
200.7168523231764
  0
ARC
  5
2DF
330
449
100
AcDbEntity
  8
DATA
  6
Continuous
 62
     7
100
AcDbCircle
 10
160.7862321279891
 20
-169.2390688884192
 30
0.0
 40
0.2078704674303082
100
AcDbArc
 50
199.3748921956568
 51
230.8298234883642
  0
ARC
  5
2E0
330
449
100
AcDbEntity
  8
DATA
  6
Continuous
 62
     7
100
AcDbCircle
 10
160.8073366776542
 20
-169.2332092274189
 30
0.0
 40
0.2289955863016254
100
AcDbArc
 50
111.4194232066093
 51
140.8149179537637
  0
ARC
  5
2E1
330
449
100
AcDbEntity
  8
DATA
  6
Continuous
 62
     7
100
AcDbCircle
 10
160.8034351990254
 20
-169.2101934443751
 30
0.0
 40
0.2061999183231792
100
AcDbArc
 50
80.51823813188375
 51
112.745841487481
  0
ARC
  5
2E2
330
449
100
AcDbEntity
  8
DATA
  6
Continuous
 62
     7
100
AcDbCircle
 10
160.8079711047586
 20
-169.2125868955004
 30
0.0
 40
0.2078704674303146
100
AcDbArc
 50
50.40526696668957
 51
81.86019825939538
  0
ARC
  5
2E3
330
449
100
AcDbEntity
  8
DATA
  6
Continuous
 62
     7
100
AcDbCircle
 10
160.7880570942135
 20
-169.2194238659634
 30
0.0
 40
0.2289955863016726
100
AcDbArc
 50
291.41942320662
 51
320.8149179537693
  0
ARC
  5
2E4
330
449
100
AcDbEntity
  8
DATA
  6
Continuous
 62
     7
100
AcDbCircle
 10
160.7919585728422
 20
-169.2424396490073
 30
0.0
 40
0.2061999183231512
100
AcDbArc
 50
260.5182381318825
 51
292.7458414874925
  0
ARC
  5
2E5
330
449
100
AcDbEntity
  8
DATA
  6
Continuous
 62
     7
100
AcDbCircle
 10
160.7874226671091
 20
-169.2400461978819
 30
0.0
 40
0.2078704674303803
100
AcDbArc
 50
230.4052669667045
 51
261.8601982593798
  0
ARC
  5
2E6
330
449
100
AcDbEntity
  8
DATA
  6
Continuous
 62
     7
100
AcDbCircle
 10
160.7890581267109
 20
-169.2182044279103
 30
0.0
 40
0.2289955863016636
100
AcDbArc
 50
320.4201725013125
 51
349.8156672484501
  0
ARC
  5
2E7
330
449
100
AcDbEntity
  8
DATA
  6
Continuous
 62
     7
100
AcDbCircle
 10
160.8123929805631
 20
-169.2175468563841
 30
0.0
 40
0.2061999183231174
100
AcDbArc
 50
348.4892489675691
 51
20.7168523231893
  0
ARC
  5
2E8
330
449
100
AcDbEntity
  8
DATA
  6
Continuous
 62
     7
100
AcDbCircle
 10
160.8091616438786
 20
-169.2135642049632
 30
0.0
 40
0.2078704674302923
100
AcDbArc
 50
19.3748921956916
 51
50.82982348836424
  0
ARC
  5
2E9
330
449
100
AcDbEntity
  8
DATA
  6
Continuous
 62
     7
100
AcDbCircle
 10
159.7717044636181
 20
-169.4877313220327
 30
0.0
 40
0.1719593568651218
100
AcDbArc
 50
196.1757341157507
 51
230.6447414474069
  0
ARC
  5
2EA
330
449
100
AcDbEntity
  8
DATA
  6
Continuous
 62
     7
100
AcDbCircle
 10
159.8061767764539
 20
-169.4759941859579
 30
0.0
 40
0.2083434395955488
100
AcDbArc
 50
166.333948547497
 51
196.6347345165164
  0
ARC
  5
2EB
330
449
100
AcDbEntity
  8
DATA
  6
Continuous
 62
     7
100
AcDbCircle
 10
159.8463707975766
 20
-169.4824224259874
 30
0.0
 40
0.2489395077601533
100
AcDbArc
 50
140.2580479668776
 51
167.0820077763951
  0
ARC
  5
2EC
330
449
100
AcDbEntity
  8
DATA
  6
Continuous
 62
     7
100
AcDbCircle
 10
159.8390124125153
 20
-169.405738105656
 30
0.0
 40
0.171959356865044
100
AcDbArc
 50
50.59034900765225
 51
85.059356339341
  0
ARC
  5
2ED
330
449
100
AcDbEntity
  8
DATA
  6
Continuous
 62
     7
100
AcDbCircle
 10
159.8342166230954
 20
-169.441836597582
 30
0.0
 40
0.2083434395956298
100
AcDbArc
 50
84.60035593855106
 51
114.901141907541
  0
ARC
  5
2EE
330
449
100
AcDbEntity
  8
DATA
  6
Continuous
 62
     7
100
AcDbCircle
 10
159.8483528783384
 20
-169.4800078942799
 30
0.0
 40
0.2489395077601114
100
AcDbArc
 50
114.1530826786579
 51
140.9770424881989
  0
ARC
  5
2EF
330
449
100
AcDbEntity
  8
DATA
  6
Continuous
 62
     7
100
AcDbCircle
 10
159.7718306407613
 20
-169.4878349004149
 30
0.0
 40
0.1719593568651601
100
AcDbArc
 50
230.5903490076349
 51
265.059356339323
  0
ARC
  5
2F0
330
449
100
AcDbEntity
  8
DATA
  6
Continuous
 62
     7
100
AcDbCircle
 10
159.7766264301811
 20
-169.451736408489
 30
0.0
 40
0.2083434395955961
100
AcDbArc
 50
264.6003559385659
 51
294.9011419075727
  0
ARC
  5
2F1
330
449
100
AcDbEntity
  8
DATA
  6
Continuous
 62
     7
100
AcDbCircle
 10
159.7624901749382
 20
-169.4135651117911
 30
0.0
 40
0.2489395077601087
100
AcDbArc
 50
294.1530826786725
 51
320.9770424881989
  0
ARC
  5
2F2
330
449
100
AcDbEntity
  8
DATA
  6
Continuous
 62
     7
100
AcDbCircle
 10
159.8391385896585
 20
-169.4058416840383
 30
0.0
 40
0.1719593568650752
100
AcDbArc
 50
16.17573411576509
 51
50.64474144743622
  0
ARC
  5
2F3
330
449
100
AcDbEntity
  8
DATA
  6
Continuous
 62
     7
100
AcDbCircle
 10
159.8046662768227
 20
-169.4175788201131
 30
0.0
 40
0.2083434395956459
100
AcDbArc
 50
346.3339485475196
 51
16.63473451652697
  0
ARC
  5
2F4
330
449
100
AcDbEntity
  8
DATA
  6
Continuous
 62
     7
100
AcDbCircle
 10
159.7644722557
 20
-169.4111505800837
 30
0.0
 40
0.2489395077601714
100
AcDbArc
 50
320.2580479668725
 51
347.0820077763981
  0
ARC
  5
2F5
330
449
100
AcDbEntity
  8
DATA
  6
Continuous
 62
     7
100
AcDbCircle
 10
160.2792995479657
 20
-168.8693889974696
 30
0.0
 40
0.1719593568651139
100
AcDbArc
 50
196.1757341157416
 51
230.6447414474216
  0
ARC
  5
2F6
330
449
100
AcDbEntity
  8
DATA
  6
Continuous
 62
     7
100
AcDbCircle
 10
160.3137718608016
 20
-168.8576518613948
 30
0.0
 40
0.2083434395955974
100
AcDbArc
 50
166.3339485475083
 51
196.634734516512
  0
ARC
  5
2F7
330
449
100
AcDbEntity
  8
DATA
  6
Continuous
 62
     7
100
AcDbCircle
 10
160.3539658819243
 20
-168.8640801014242
 30
0.0
 40
0.2489395077600914
100
AcDbArc
 50
140.2580479668742
 51
167.0820077764015
  0
ARC
  5
2F8
330
449
100
AcDbEntity
  8
DATA
  6
Continuous
 62
     7
100
AcDbCircle
 10
160.3466074968629
 20
-168.7873957810929
 30
0.0
 40
0.1719593568651381
100
AcDbArc
 50
50.59034900762896
 51
85.05935633930326
  0
ARC
  5
2F9
330
449
100
AcDbEntity
  8
DATA
  6
Continuous
 62
     7
100
AcDbCircle
 10
160.3418117074432
 20
-168.823494273019
 30
0.0
 40
0.2083434395956298
100
AcDbArc
 50
84.60035593855106
 51
114.9011419075377
  0
ARC
  5
2FA
330
449
100
AcDbEntity
  8
DATA
  6
Continuous
 62
     7
100
AcDbCircle
 10
160.355947962686
 20
-168.8616655697168
 30
0.0
 40
0.2489395077601374
100
AcDbArc
 50
114.1530826786553
 51
140.9770424881989
  0
ARC
  5
2FB
330
449
100
AcDbEntity
  8
DATA
  6
Continuous
 62
     7
100
AcDbCircle
 10
160.279425725109
 20
-168.8694925758518
 30
0.0
 40
0.1719593568651601
100
AcDbArc
 50
230.5903490076349
 51
265.0593563393041
  0
ARC
  5
2FC
330
449
100
AcDbEntity
  8
DATA
  6
Continuous
 62
     7
100
AcDbCircle
 10
160.2842215145288
 20
-168.8333940839259
 30
0.0
 40
0.2083434395956298
100
AcDbArc
 50
264.6003559385511
 51
294.9011419075694
  0
ARC
  5
2FD
330
449
100
AcDbEntity
  8
DATA
  6
Continuous
 62
     7
100
AcDbCircle
 10
160.2700852592859
 20
-168.795222787228
 30
0.0
 40
0.248939507760132
100
AcDbArc
 50
294.1530826786845
 51
320.977042488204
  0
ARC
  5
2FE
330
449
100
AcDbEntity
  8
DATA
  6
Continuous
 62
     7
100
AcDbCircle
 10
160.3467336740062
 20
-168.7874993594752
 30
0.0
 40
0.1719593568651298
100
AcDbArc
 50
16.17573411575981
 51
50.64474144742758
  0
ARC
  5
2FF
330
449
100
AcDbEntity
  8
DATA
  6
Continuous
 62
     7
100
AcDbCircle
 10
160.3122613611704
 20
-168.7992364955501
 30
0.0
 40
0.2083434395955839
100
AcDbArc
 50
346.3339485475235
 51
16.63473451652697
  0
ARC
  5
300
330
449
100
AcDbEntity
  8
DATA
  6
Continuous
 62
     7
100
AcDbCircle
 10
160.2720673400476
 20
-168.7928082555206
 30
0.0
 40
0.2489395077601095
100
AcDbArc
 50
320.2580479668692
 51
347.0820077764015
  0
ARC
  5
301
330
449
100
AcDbEntity
  8
DATA
  6
Continuous
 62
     7
100
AcDbCircle
 10
159.3266051500121
 20
-169.1840480323145
 30
0.0
 40
0.1242832178071917
100
AcDbArc
 50
189.849856171922
 51
229.8424965473451
  0
ARC
  5
302
330
449
100
AcDbEntity
  8
DATA
  6
Continuous
 62
     7
100
AcDbCircle
 10
159.3989625485798
 20
-169.1688723207217
 30
0.0
 40
0.1981868046204078
100
AcDbArc
 50
161.1192184022578
 51
190.5940367844274
  0
ARC
  5
303
330
449
100
AcDbEntity
  8
DATA
  6
Continuous
 62
     7
100
AcDbCircle
 10
159.4921154917142
 20
-169.1929290302195
 30
0.0
 40
0.2942049353630827
100
AcDbArc
 50
140.115628950949
 51
162.5569949964144
  0
ARC
  5
304
330
449
100
AcDbEntity
  8
DATA
  6
Continuous
 62
     7
100
AcDbCircle
 10
159.4544279382169
 20
-169.0283368317375
 30
0.0
 40
0.1242832178072187
100
AcDbArc
 50
51.39259390771229
 51
91.38523428315835
  0
ARC
  5
305
330
449
100
AcDbEntity
  8
DATA
  6
Continuous
 62
     7
100
AcDbCircle
 10
159.4536408143645
 20
-169.1022643353195
 30
0.0
 40
0.1981868046203316
100
AcDbArc
 50
90.6410536706509
 51
120.1158720528026
  0
ARC
  5
306
330
449
100
AcDbEntity
  8
DATA
  6
Continuous
 62
     7
100
AcDbCircle
 10
159.4953859639212
 20
-169.188945005454
 30
0.0
 40
0.2942049353630247
100
AcDbArc
 50
118.6780954586426
 51
141.1194615041172
  0
ARC
  5
307
330
449
100
AcDbEntity
  8
DATA
  6
Continuous
 62
     7
100
AcDbCircle
 10
159.3240063397338
 20
-169.1819146779087
 30
0.0
 40
0.1242832178072764
100
AcDbArc
 50
231.3925939077
 51
271.3852342831325
  0
ARC
  5
308
330
449
100
AcDbEntity
  8
DATA
  6
Continuous
 62
     7
100
AcDbCircle
 10
159.3247934635862
 20
-169.1079871743267
 30
0.0
 40
0.1981868046203026
100
AcDbArc
 50
270.6410536706346
 51
300.1158720528168
  0
ARC
  5
309
330
449
100
AcDbEntity
  8
DATA
  6
Continuous
 62
     7
100
AcDbCircle
 10
159.2830483140296
 20
-169.0213065041922
 30
0.0
 40
0.2942049353630269
100
AcDbArc
 50
298.6780954586549
 51
321.1194615041216
  0
ARC
  5
30A
330
449
100
AcDbEntity
  8
DATA
  6
Continuous
 62
     7
100
AcDbCircle
 10
159.4518291279387
 20
-169.0262034773317
 30
0.0
 40
0.1242832178072477
100
AcDbArc
 50
9.849856171917522
 51
49.8424965473567
  0
ARC
  5
30B
330
449
100
AcDbEntity
  8
DATA
  6
Continuous
 62
     7
100
AcDbCircle
 10
159.379471729371
 20
-169.0413791889245
 30
0.0
 40
0.198186804620354
100
AcDbArc
 50
341.1192184022525
 51
10.59403678442732
  0
ARC
  5
30C
330
449
100
AcDbEntity
  8
DATA
  6
Continuous
 62
     7
100
AcDbCircle
 10
159.2863187862366
 20
-169.0173224794267
 30
0.0
 40
0.2942049353630391
100
AcDbArc
 50
320.1156289509419
 51
342.556994996411
  0
ARC
  5
30D
330
449
100
AcDbEntity
  8
DATA
  6
Continuous
 62
     7
100
AcDbCircle
 10
159.8342002343597
 20
-168.5657057077514
 30
0.0
 40
0.1242832178072428
100
AcDbArc
 50
189.8498561719046
 51
229.8424965473651
  0
ARC
  5
30E
330
449
100
AcDbEntity
  8
DATA
  6
Continuous
 62
     7
100
AcDbCircle
 10
159.9065576329274
 20
-168.5505299961586
 30
0.0
 40
0.1981868046203986
100
AcDbArc
 50
161.1192184022656
 51
190.5940367844162
  0
ARC
  5
30F
330
449
100
AcDbEntity
  8
DATA
  6
Continuous
 62
     7
100
AcDbCircle
 10
159.9997105760619
 20
-168.5745867056564
 30
0.0
 40
0.2942049353630645
100
AcDbArc
 50
140.1156289509532
 51
162.5569949964249
  0
ARC
  5
310
330
449
100
AcDbEntity
  8
DATA
  6
Continuous
 62
     7
100
AcDbCircle
 10
159.9620230225646
 20
-168.4099945071744
 30
0.0
 40
0.1242832178072187
100
AcDbArc
 50
51.39259390771229
 51
91.38523428318451
  0
ARC
  5
311
330
449
100
AcDbEntity
  8
DATA
  6
Continuous
 62
     7
100
AcDbCircle
 10
159.9612358987122
 20
-168.4839220107564
 30
0.0
 40
0.1981868046203316
100
AcDbArc
 50
90.6410536706509
 51
120.1158720527985
  0
ARC
  5
312
330
449
100
AcDbEntity
  8
DATA
  6
Continuous
 62
     7
100
AcDbCircle
 10
160.0029810482689
 20
-168.5706026808909
 30
0.0
 40
0.2942049353630769
100
AcDbArc
 50
118.6780954586496
 51
141.1194615041242
  0
ARC
  5
313
330
449
100
AcDbEntity
  8
DATA
  6
Continuous
 62
     7
100
AcDbCircle
 10
159.8316014240815
 20
-168.5635723533456
 30
0.0
 40
0.1242832178072409
100
AcDbArc
 50
231.3925939077205
 51
271.3852342831324
  0
ARC
  5
314
330
449
100
AcDbEntity
  8
DATA
  6
Continuous
 62
     7
100
AcDbCircle
 10
159.8323885479338
 20
-168.4896448497636
 30
0.0
 40
0.1981868046203316
100
AcDbArc
 50
270.6410536706509
 51
300.1158720528412
  0
ARC
  5
315
330
449
100
AcDbEntity
  8
DATA
  6
Continuous
 62
     7
100
AcDbCircle
 10
159.7906433983772
 20
-168.4029641796291
 30
0.0
 40
0.2942049353631042
100
AcDbArc
 50
298.6780954586594
 51
321.1194615041129
  0
ARC
  5
316
330
449
100
AcDbEntity
  8
DATA
  6
Continuous
 62
     7
100
AcDbCircle
 10
159.9594242122864
 20
-168.4078611527686
 30
0.0
 40
0.1242832178071357
100
AcDbArc
 50
9.849856171926489
 51
49.8424965473567
  0
ARC
  5
317
330
449
100
AcDbEntity
  8
DATA
  6
Continuous
 62
     7
100
AcDbCircle
 10
159.8870668137186
 20
-168.4230368643614
 30
0.0
 40
0.1981868046204615
100
AcDbArc
 50
341.1192184022632
 51
10.59403678441924
  0
ARC
  5
318
330
449
100
AcDbEntity
  8
DATA
  6
Continuous
 62
     7
100
AcDbCircle
 10
159.7939138705842
 20
-168.3989801548636
 30
0.0
 40
0.2942049353630827
100
AcDbArc
 50
320.115628950949
 51
342.5569949964229
  0
ARC
  5
319
330
449
100
AcDbEntity
  8
DATA
  6
Continuous
 62
     7
100
AcDbCircle
 10
158.9752133086703
 20
-168.9625361709286
 30
0.0
 40
0.0725796082928755
100
AcDbArc
 50
176.3477881817192
 51
228.4689590538716
  0
ARC
  5
31A
330
449
100
AcDbEntity
  8
DATA
  6
Continuous
 62
     7
100
AcDbCircle
 10
159.126896977087
 20
-168.9617808460098
 30
0.0
 40
0.2241492505947664
100
AcDbArc
 50
155.3109641331288
 51
179.011236037424
  0
ARC
  5
31B
330
449
100
AcDbEntity
  8
DATA
  6
Continuous
 62
     7
100
AcDbCircle
 10
159.3026483752307
 20
-169.0362768769066
 30
0.0
 40
0.4149908473630543
100
AcDbArc
 50
140.3811590954651
 51
156.1012683070302
  0
ARC
  5
31C
330
449
100
AcDbEntity
  8
DATA
  6
Continuous
 62
     7
100
AcDbCircle
 10
159.1686976643714
 20
-168.7268373433393
 30
0.0
 40
0.0725796082926965
100
AcDbArc
 50
52.7661314012024
 51
104.8873022733468
  0
ARC
  5
31D
330
449
100
AcDbEntity
  8
DATA
  6
Continuous
 62
     7
100
AcDbCircle
 10
159.1975101164092
 20
-168.8757613118187
 30
0.0
 40
0.2241492505947351
100
AcDbArc
 50
102.223854417627
 51
125.9241263219299
  0
ARC
  5
31E
330
449
100
AcDbEntity
  8
DATA
  6
Continuous
 62
     7
100
AcDbCircle
 10
159.3048210467167
 20
-169.0336301713364
 30
0.0
 40
0.4149908473630894
100
AcDbArc
 50
125.1338221480399
 51
140.8539313596055
  0
ARC
  5
31F
330
449
100
AcDbEntity
  8
DATA
  6
Continuous
 62
     7
100
AcDbCircle
 10
158.9710068952413
 20
-168.9590831406339
 30
0.0
 40
0.0725796082927074
100
AcDbArc
 50
232.7661314012653
 51
284.8873022734277
  0
ARC
  5
320
330
449
100
AcDbEntity
  8
DATA
  6
Continuous
 62
     7
100
AcDbCircle
 10
158.9421944432034
 20
-168.8101591721545
 30
0.0
 40
0.2241492505947592
100
AcDbArc
 50
282.2238544176554
 51
305.9241263219298
  0
ARC
  5
321
330
449
100
AcDbEntity
  8
DATA
  6
Continuous
 62
     7
100
AcDbCircle
 10
158.8348835128961
 20
-168.6522903126368
 30
0.0
 40
0.4149908473630239
100
AcDbArc
 50
305.1338221480271
 51
320.8539313596036
  0
ARC
  5
322
330
449
100
AcDbEntity
  8
DATA
  6
Continuous
 62
     7
100
AcDbCircle
 10
159.1644912509425
 20
-168.7233843130446
 30
0.0
 40
0.0725796082927638
100
AcDbArc
 50
356.347788181691
 51
48.46895905387544
  0
ARC
  5
323
330
449
100
AcDbEntity
  8
DATA
  6
Continuous
 62
     7
100
AcDbCircle
 10
159.0128075825257
 20
-168.7241396379634
 30
0.0
 40
0.2241492505948181
100
AcDbArc
 50
335.3109641331349
 51
359.0112360374168
  0
ARC
  5
324
330
449
100
AcDbEntity
  8
DATA
  6
Continuous
 62
     7
100
AcDbCircle
 10
158.837056184382
 20
-168.6496436070666
 30
0.0
 40
0.4149908473630543
100
AcDbArc
 50
320.381159095465
 51
336.1012683070302
  0
ARC
  5
325
330
449
100
AcDbEntity
  8
DATA
  6
Continuous
 62
     7
100
AcDbCircle
 10
159.4828083930178
 20
-168.3441938463655
 30
0.0
 40
0.072579608292762
100
AcDbArc
 50
176.3477881817135
 51
228.4689590539052
  0
ARC
  5
326
330
449
100
AcDbEntity
  8
DATA
  6
Continuous
 62
     7
100
AcDbCircle
 10
159.6344920614347
 20
-168.3434385214467
 30
0.0
 40
0.2241492505947546
100
AcDbArc
 50
155.3109641331354
 51
179.0112360374313
  0
ARC
  5
327
330
449
100
AcDbEntity
  8
DATA
  6
Continuous
 62
     7
100
AcDbCircle
 10
159.8102434595783
 20
-168.4179345523435
 30
0.0
 40
0.4149908473630105
100
AcDbArc
 50
140.38115909546
 51
156.1012683070307
  0
ARC
  5
328
330
449
100
AcDbEntity
  8
DATA
  6
Continuous
 62
     7
100
AcDbCircle
 10
159.676292748719
 20
-168.1084950187762
 30
0.0
 40
0.0725796082927309
100
AcDbArc
 50
52.76613140116667
 51
104.8873022733844
  0
ARC
  5
329
330
449
100
AcDbEntity
  8
DATA
  6
Continuous
 62
     7
100
AcDbCircle
 10
159.705105200757
 20
-168.2574189872557
 30
0.0
 40
0.224149250594787
100
AcDbArc
 50
102.2238544176539
 51
125.9241263219416
  0
ARC
  5
32A
330
449
100
AcDbEntity
  8
DATA
  6
Continuous
 62
     7
100
AcDbCircle
 10
159.8124161310643
 20
-168.4152878467734
 30
0.0
 40
0.4149908473630894
100
AcDbArc
 50
125.1338221480399
 51
140.8539313595975
  0
ARC
  5
32B
330
449
100
AcDbEntity
  8
DATA
  6
Continuous
 62
     7
100
AcDbCircle
 10
159.478601979589
 20
-168.3407408160708
 30
0.0
 40
0.0725796082927418
100
AcDbArc
 50
232.7661314012295
 51
284.8873022733844
  0
ARC
  5
32C
330
449
100
AcDbEntity
  8
DATA
  6
Continuous
 62
     7
100
AcDbCircle
 10
159.4497895275511
 20
-168.1918168475914
 30
0.0
 40
0.224149250594787
100
AcDbArc
 50
282.2238544176539
 51
305.9241263219416
  0
ARC
  5
32D
330
449
100
AcDbEntity
  8
DATA
  6
Continuous
 62
     7
100
AcDbCircle
 10
159.3424785972437
 20
-168.0339479880737
 30
0.0
 40
0.4149908473630567
100
AcDbArc
 50
305.1338221480336
 51
320.8539313596005
  0
ARC
  5
32E
330
449
100
AcDbEntity
  8
DATA
  6
Continuous
 62
     7
100
AcDbCircle
 10
159.6720863352902
 20
-168.1050419884815
 30
0.0
 40
0.0725796082926504
100
AcDbArc
 50
356.3477881816854
 51
48.46895905387544
  0
ARC
  5
32F
330
449
100
AcDbEntity
  8
DATA
  6
Continuous
 62
     7
100
AcDbCircle
 10
159.5204026668734
 20
-168.1057973134004
 30
0.0
 40
0.2241492505947664
100
AcDbArc
 50
335.3109641331288
 51
359.0112360374162
  0
ARC
  5
330
330
449
100
AcDbEntity
  8
DATA
  6
Continuous
 62
     7
100
AcDbCircle
 10
159.3446512687296
 20
-168.0313012825035
 30
0.0
 40
0.4149908473630982
100
AcDbArc
 50
320.38115909547
 51
336.1012683070334
  0
ARC
  5
331
330
449
100
AcDbEntity
  8
DATA
  6
Continuous
 62
     7
100
AcDbCircle
 10
158.7353299731444
 20
-168.8402434108248
 30
0.0
 40
0.014857541458275
100
AcDbArc
 50
192.2100473590355
 51
232.7171772572595
  0
ARC
  5
332
330
449
100
AcDbEntity
  8
DATA
  6
Continuous
 62
     7
100
AcDbCircle
 10
159.4186583511019
 20
-169.1332430123823
 30
0.0
 40
0.7717112153216964
100
AcDbArc
 50
140.3909229785897
 51
148.7709885505009
  0
ARC
  5
333
330
449
100
AcDbEntity
  8
DATA
  6
Continuous
 62
     7
100
AcDbCircle
 10
159.0292173085695
 20
-168.9012659076515
 30
0.0
 40
0.3194673992622836
100
AcDbArc
 50
158.5657718218239
 51
163.4580960443708
  0
ARC
  5
334
330
449
100
AcDbEntity
  8
DATA
  6
Continuous
 62
     7
100
AcDbCircle
 10
159.1364234926197
 20
-168.9637645159226
 30
0.0
 40
0.4425060695938563
100
AcDbArc
 50
148.5889230459954
 51
156.1049703674781
  0
ARC
  5
335
330
449
100
AcDbEntity
  8
DATA
  6
Continuous
 62
     7
100
AcDbCircle
 10
158.8150374346138
 20
-168.8364559645543
 30
0.0
 40
0.0957064659492466
100
AcDbArc
 50
164.1447932925301
 51
177.3902133094164
  0
ARC
  5
336
330
449
100
AcDbEntity
  8
DATA
  6
Continuous
 62
     7
100
AcDbCircle
 10
158.7567916683734
 20
-168.8332639885974
 30
0.0
 40
0.0373796202719629
100
AcDbArc
 50
178.2126306989781
 51
195.71081737984
  0
ARC
  5
337
330
449
100
AcDbEntity
  8
DATA
  6
Continuous
 62
     7
100
AcDbCircle
 10
159.0020108286178
 20
-168.5153780502749
 30
0.0
 40
0.0148575414582797
100
AcDbArc
 50
48.51791319767088
 51
89.02504309595569
  0
ARC
  5
338
330
449
100
AcDbEntity
  8
DATA
  6
Continuous
 62
     7
100
AcDbCircle
 10
159.4225317391533
 20
-169.1285245274215
 30
0.0
 40
0.7717112153217091
100
AcDbArc
 50
132.4641019045664
 51
140.8441674764817
  0
ARC
  5
339
330
449
100
AcDbEntity
  8
DATA
  6
Continuous
 62
     7
100
AcDbCircle
 10
159.1191234580203
 20
-168.7917440088817
 30
0.0
 40
0.3194673992622619
100
AcDbArc
 50
117.7769944106851
 51
122.6693186332313
  0
ARC
  5
33A
330
449
100
AcDbEntity
  8
DATA
  6
Continuous
 62
     7
100
AcDbCircle
 10
159.2013118708564
 20
-168.884718772823
 30
0.0
 40
0.4425060695937531
100
AcDbArc
 50
125.1301200875841
 51
132.6461674090703
  0
ARC
  5
33B
330
449
100
AcDbEntity
  8
DATA
  6
Continuous
 62
     7
100
AcDbCircle
 10
159.0138257757299
 20
-168.5942959265
 30
0.0
 40
0.0957064659492185
100
AcDbArc
 50
103.8448771456503
 51
117.090297162523
  0
ARC
  5
33C
330
449
100
AcDbEntity
  8
DATA
  6
Continuous
 62
     7
100
AcDbCircle
 10
158.9993466513674
 20
-168.5377882902627
 30
0.0
 40
0.037379620271963
100
AcDbArc
 50
85.52427307517964
 51
103.0224597560203
  0
ARC
  5
33D
330
449
100
AcDbEntity
  8
DATA
  6
Continuous
 62
     7
100
AcDbCircle
 10
158.7361714443987
 20
-168.8409341716789
 30
0.0
 40
0.0148575414583174
100
AcDbArc
 50
228.5179131975067
 51
269.0250430957366
  0
ARC
  5
33E
330
449
100
AcDbEntity
  8
DATA
  6
Continuous
 62
     7
100
AcDbCircle
 10
158.3156505338631
 20
-168.2277876945323
 30
0.0
 40
0.7717112153217091
100
AcDbArc
 50
312.4641019045664
 51
320.8441674764785
  0
ARC
  5
33F
330
449
100
AcDbEntity
  8
DATA
  6
Continuous
 62
     7
100
AcDbCircle
 10
158.6190588149961
 20
-168.564568213072
 30
0.0
 40
0.3194673992622885
100
AcDbArc
 50
297.7769944106942
 51
302.6693186332344
  0
ARC
  5
340
330
449
100
AcDbEntity
  8
DATA
  6
Continuous
 62
     7
100
AcDbCircle
 10
158.5368704021601
 20
-168.4715934491308
 30
0.0
 40
0.4425060695937763
100
AcDbArc
 50
305.130120087582
 51
312.6461674090754
  0
ARC
  5
341
330
449
100
AcDbEntity
  8
DATA
  6
Continuous
 62
     7
100
AcDbCircle
 10
158.7243564972865
 20
-168.7620162954537
 30
0.0
 40
0.0957064659492461
100
AcDbArc
 50
283.8448771456463
 51
297.0902971625152
  0
ARC
  5
342
330
449
100
AcDbEntity
  8
DATA
  6
Continuous
 62
     7
100
AcDbCircle
 10
158.738835621649
 20
-168.8185239316911
 30
0.0
 40
0.0373796202719347
100
AcDbArc
 50
265.5242730751762
 51
283.02245975604
  0
ARC
  5
343
330
449
100
AcDbEntity
  8
DATA
  6
Continuous
 62
     7
100
AcDbCircle
 10
159.0028522998722
 20
-168.5160688111291
 30
0.0
 40
0.0148575414582375
100
AcDbArc
 50
12.21004735940317
 51
52.71717725756673
  0
ARC
  5
344
330
449
100
AcDbEntity
  8
DATA
  6
Continuous
 62
     7
100
AcDbCircle
 10
158.3195239219146
 20
-168.2230692095714
 30
0.0
 40
0.7717112153216709
100
AcDbArc
 50
320.3909229785852
 51
328.7709885504964
  0
ARC
  5
345
330
449
100
AcDbEntity
  8
DATA
  6
Continuous
 62
     7
100
AcDbCircle
 10
158.7089649644469
 20
-168.4550463143023
 30
0.0
 40
0.3194673992622732
100
AcDbArc
 50
338.5657718218286
 51
343.4580960443708
  0
ARC
  5
346
330
449
100
AcDbEntity
  8
DATA
  6
Continuous
 62
     7
100
AcDbCircle
 10
158.6017587803967
 20
-168.3925477060312
 30
0.0
 40
0.442506069593793
100
AcDbArc
 50
328.5889230459948
 51
336.1049703674849
  0
ARC
  5
347
330
449
100
AcDbEntity
  8
DATA
  6
Continuous
 62
     7
100
AcDbCircle
 10
158.9231448384027
 20
-168.5198562573996
 30
0.0
 40
0.0957064659491217
100
AcDbArc
 50
344.1447932925443
 51
357.3902133094474
  0
ARC
  5
348
330
449
100
AcDbEntity
  8
DATA
  6
Continuous
 62
     7
100
AcDbCircle
 10
158.9813906046431
 20
-168.5230482333564
 30
0.0
 40
0.0373796202718475
100
AcDbArc
 50
358.2126306990597
 51
15.71081737997116
  0
ARC
  5
349
330
449
100
AcDbEntity
  8
DATA
  6
Continuous
 62
     7
100
AcDbCircle
 10
159.242925057492
 20
-168.2219010862617
 30
0.0
 40
0.0148575414582255
100
AcDbArc
 50
192.2100473591888
 51
232.7171772575004
  0
ARC
  5
34A
330
449
100
AcDbEntity
  8
DATA
  6
Continuous
 62
     7
100
AcDbCircle
 10
159.9262534354495
 20
-168.5149006878193
 30
0.0
 40
0.7717112153216964
100
AcDbArc
 50
140.3909229785897
 51
148.7709885505009
  0
ARC
  5
34B
330
449
100
AcDbEntity
  8
DATA
  6
Continuous
 62
     7
100
AcDbCircle
 10
159.5368123929172
 20
-168.2829235830884
 30
0.0
 40
0.3194673992623261
100
AcDbArc
 50
158.5657718218323
 51
163.4580960443766
  0
ARC
  5
34C
330
449
100
AcDbEntity
  8
DATA
  6
Continuous
 62
     7
100
AcDbCircle
 10
159.6440185769673
 20
-168.3454221913595
 30
0.0
 40
0.442506069593793
100
AcDbArc
 50
148.5889230459948
 51
156.1049703674818
  0
ARC
  5
34D
330
449
100
AcDbEntity
  8
DATA
  6
Continuous
 62
     7
100
AcDbCircle
 10
159.3226325189614
 20
-168.2181136399912
 30
0.0
 40
0.0957064659492388
100
AcDbArc
 50
164.1447932925465
 51
177.3902133094319
  0
ARC
  5
34E
330
449
100
AcDbEntity
  8
DATA
  6
Continuous
 62
     7
100
AcDbCircle
 10
159.2643867527211
 20
-168.2149216640343
 30
0.0
 40
0.037379620271962
100
AcDbArc
 50
178.2126306990216
 51
195.7108173799056
  0
ARC
  5
34F
330
449
100
AcDbEntity
  8
DATA
  6
Continuous
 62
     7
100
AcDbCircle
 10
159.5096059129655
 20
-167.8970357257117
 30
0.0
 40
0.0148575414582748
100
AcDbArc
 50
48.51791319736146
 51
89.02504309573284
  0
ARC
  5
350
330
449
100
AcDbEntity
  8
DATA
  6
Continuous
 62
     7
100
AcDbCircle
 10
159.930126823501
 20
-168.5101822028584
 30
0.0
 40
0.7717112153217091
100
AcDbArc
 50
132.4641019045664
 51
140.8441674764844
  0
ARC
  5
351
330
449
100
AcDbEntity
  8
DATA
  6
Continuous
 62
     7
100
AcDbCircle
 10
159.626718542368
 20
-168.1734016843186
 30
0.0
 40
0.3194673992622633
100
AcDbArc
 50
117.7769944106965
 51
122.6693186332485
  0
ARC
  5
352
330
449
100
AcDbEntity
  8
DATA
  6
Continuous
 62
     7
100
AcDbCircle
 10
159.708906955204
 20
-168.2663764482599
 30
0.0
 40
0.442506069593809
100
AcDbArc
 50
125.1301200875879
 51
132.6461674090649
  0
ARC
  5
353
330
449
100
AcDbEntity
  8
DATA
  6
Continuous
 62
     7
100
AcDbCircle
 10
159.5214208600775
 20
-167.975953601937
 30
0.0
 40
0.0957064659492737
100
AcDbArc
 50
103.8448771456422
 51
117.0902971625152
  0
ARC
  5
354
330
449
100
AcDbEntity
  8
DATA
  6
Continuous
 62
     7
100
AcDbCircle
 10
159.5069417357152
 20
-167.9194459656996
 30
0.0
 40
0.037379620271963
100
AcDbArc
 50
85.52427307517964
 51
103.0224597560953
  0
ARC
  5
355
330
449
100
AcDbEntity
  8
DATA
  6
Continuous
 62
     7
100
AcDbCircle
 10
159.2437665287463
 20
-168.2225918471158
 30
0.0
 40
0.0148575414582797
100
AcDbArc
 50
228.5179131976708
 51
269.0250430957365
  0
ARC
  5
356
330
449
100
AcDbEntity
  8
DATA
  6
Continuous
 62
     7
100
AcDbCircle
 10
158.8232456182107
 20
-167.6094453699692
 30
0.0
 40
0.7717112153217091
100
AcDbArc
 50
312.4641019045664
 51
320.8441674764828
  0
ARC
  5
357
330
449
100
AcDbEntity
  8
DATA
  6
Continuous
 62
     7
100
AcDbCircle
 10
159.1266538993438
 20
-167.9462258885089
 30
0.0
 40
0.3194673992623136
100
AcDbArc
 50
297.7769944106918
 51
302.6693186332344
  0
ARC
  5
358
330
449
100
AcDbEntity
  8
DATA
  6
Continuous
 62
     7
100
AcDbCircle
 10
159.0444654865077
 20
-167.8532511245677
 30
0.0
 40
0.442506069593809
100
AcDbArc
 50
305.1301200875879
 51
312.6461674090674
  0
ARC
  5
359
330
449
100
AcDbEntity
  8
DATA
  6
Continuous
 62
     7
100
AcDbCircle
 10
159.2319515816342
 20
-168.1436739708907
 30
0.0
 40
0.0957064659492461
100
AcDbArc
 50
283.8448771456463
 51
297.0902971625455
  0
ARC
  5
35A
330
449
100
AcDbEntity
  8
DATA
  6
Continuous
 62
     7
100
AcDbCircle
 10
159.2464307059967
 20
-168.2001816071281
 30
0.0
 40
0.0373796202719391
100
AcDbArc
 50
265.5242730750893
 51
283.022459755955
  0
ARC
  5
35B
330
449
100
AcDbEntity
  8
DATA
  6
Continuous
 62
     7
100
AcDbCircle
 10
159.5104473842198
 20
-167.8977264865659
 30
0.0
 40
0.0148575414583486
100
AcDbArc
 50
12.21004735931044
 51
52.71717725715152
  0
ARC
  5
35C
330
449
100
AcDbEntity
  8
DATA
  6
Continuous
 62
     7
100
AcDbCircle
 10
158.8271190062622
 20
-167.6047268850084
 30
0.0
 40
0.7717112153216964
100
AcDbArc
 50
320.3909229785897
 51
328.7709885505003
  0
ARC
  5
35D
330
449
100
AcDbEntity
  8
DATA
  6
Continuous
 62
     7
100
AcDbCircle
 10
159.2165600487946
 20
-167.8367039897392
 30
0.0
 40
0.3194673992622732
100
AcDbArc
 50
338.5657718218286
 51
343.4580960443737
  0
ARC
  5
35E
330
449
100
AcDbEntity
  8
DATA
  6
Continuous
 62
     7
100
AcDbCircle
 10
159.1093538647444
 20
-167.7742053814681
 30
0.0
 40
0.4425060695937444
100
AcDbArc
 50
328.5889230459909
 51
336.1049703674785
  0
ARC
  5
35F
330
449
100
AcDbEntity
  8
DATA
  6
Continuous
 62
     7
100
AcDbCircle
 10
159.4307399227504
 20
-167.9015139328364
 30
0.0
 40
0.0957064659492466
100
AcDbArc
 50
344.1447932925302
 51
357.3902133094164
  0
ARC
  5
360
330
449
100
AcDbEntity
  8
DATA
  6
Continuous
 62
     7
100
AcDbCircle
 10
159.4889856889907
 20
-167.9047059087934
 30
0.0
 40
0.037379620271962
100
AcDbArc
 50
358.2126306990216
 51
15.71081737992398
  0
ARC
  5
361
330
449
100
AcDbEntity
  8
DATA
  6
Continuous
 62
     7
100
AcDbCircle
 10
161.7814431955913
 20
-171.1375189245449
 30
0.0
 40
0.171959356865044
100
AcDbArc
 50
230.5903490076522
 51
265.0593563393032
  0
ARC
  5
362
330
449
100
AcDbEntity
  8
DATA
  6
Continuous
 62
     7
100
AcDbCircle
 10
161.7862389850111
 20
-171.1014204326189
 30
0.0
 40
0.2083434395956068
100
AcDbArc
 50
264.6003559385348
 51
294.9011419075617
  0
ARC
  5
363
330
449
100
AcDbEntity
  8
DATA
  6
Continuous
 62
     7
100
AcDbCircle
 10
161.7721027297682
 20
-171.063249135921
 30
0.0
 40
0.2489395077601061
100
AcDbArc
 50
294.1530826786872
 51
320.977042488204
  0
ARC
  5
364
330
449
100
AcDbEntity
  8
DATA
  6
Continuous
 62
     7
100
AcDbCircle
 10
161.8487511444886
 20
-171.0555257081682
 30
0.0
 40
0.1719593568650831
100
AcDbArc
 50
16.17573411577418
 51
50.64474144743357
  0
ARC
  5
365
330
449
100
AcDbEntity
  8
DATA
  6
Continuous
 62
     7
100
AcDbCircle
 10
161.8142788316526
 20
-171.067262844243
 30
0.0
 40
0.2083434395956459
100
AcDbArc
 50
346.3339485475196
 51
16.63473451652697
  0
ARC
  5
366
330
449
100
AcDbEntity
  8
DATA
  6
Continuous
 62
     7
100
AcDbCircle
 10
161.77408481053
 20
-171.0608346042135
 30
0.0
 40
0.248939507760084
100
AcDbArc
 50
320.2580479668557
 51
347.0820077763888
  0
ARC
  5
367
330
449
100
AcDbEntity
  8
DATA
  6
Continuous
 62
     7
100
AcDbCircle
 10
161.7813170184481
 20
-171.1374153461625
 30
0.0
 40
0.1719593568651298
100
AcDbArc
 50
196.1757341157598
 51
230.6447414474362
  0
ARC
  5
368
330
449
100
AcDbEntity
  8
DATA
  6
Continuous
 62
     7
100
AcDbCircle
 10
161.8157893312839
 20
-171.1256782100877
 30
0.0
 40
0.2083434395955421
100
AcDbArc
 50
166.3339485475046
 51
196.6347345165315
  0
ARC
  5
369
330
449
100
AcDbEntity
  8
DATA
  6
Continuous
 62
     7
100
AcDbCircle
 10
161.8559833524067
 20
-171.1321064501172
 30
0.0
 40
0.2489395077601533
100
AcDbArc
 50
140.2580479668776
 51
167.0820077763887
  0
ARC
  5
36A
330
449
100
AcDbEntity
  8
DATA
  6
Continuous
 62
     7
100
AcDbCircle
 10
161.8486249673452
 20
-171.0554221297859
 30
0.0
 40
0.1719593568651962
100
AcDbArc
 50
50.59034900762036
 51
85.05935633930326
  0
ARC
  5
36B
330
449
100
AcDbEntity
  8
DATA
  6
Continuous
 62
     7
100
AcDbCircle
 10
161.8438291779255
 20
-171.0915206217119
 30
0.0
 40
0.2083434395956298
100
AcDbArc
 50
84.60035593855106
 51
114.9011419075519
  0
ARC
  5
36C
330
449
100
AcDbEntity
  8
DATA
  6
Continuous
 62
     7
100
AcDbCircle
 10
161.8579654331683
 20
-171.1296919184098
 30
0.0
 40
0.2489395077601347
100
AcDbArc
 50
114.1530826786699
 51
140.9770424881989
  0
ARC
  5
36D
330
449
100
AcDbEntity
  8
DATA
  6
Continuous
 62
     7
100
AcDbCircle
 10
162.289038279939
 20
-170.5191765999818
 30
0.0
 40
0.1719593568651162
100
AcDbArc
 50
230.5903490076229
 51
265.0593563392836
  0
ARC
  5
36E
330
449
100
AcDbEntity
  8
DATA
  6
Continuous
 62
     7
100
AcDbCircle
 10
162.2938340693588
 20
-170.4830781080558
 30
0.0
 40
0.2083434395955786
100
AcDbArc
 50
264.6003559385341
 51
294.9011419075617
  0
ARC
  5
36F
330
449
100
AcDbEntity
  8
DATA
  6
Continuous
 62
     7
100
AcDbCircle
 10
162.2796978141159
 20
-170.4449068113579
 30
0.0
 40
0.248939507760132
100
AcDbArc
 50
294.1530826786845
 51
320.9770424882072
  0
ARC
  5
370
330
449
100
AcDbEntity
  8
DATA
  6
Continuous
 62
     7
100
AcDbCircle
 10
162.3563462288362
 20
-170.4371833836051
 30
0.0
 40
0.1719593568651377
100
AcDbArc
 50
16.1757341157689
 51
50.64474144743357
  0
ARC
  5
371
330
449
100
AcDbEntity
  8
DATA
  6
Continuous
 62
     7
100
AcDbCircle
 10
162.3218739160004
 20
-170.4489205196799
 30
0.0
 40
0.2083434395956526
100
AcDbArc
 50
346.3339485475121
 51
16.63473451651952
  0
ARC
  5
372
330
449
100
AcDbEntity
  8
DATA
  6
Continuous
 62
     7
100
AcDbCircle
 10
162.2816798948776
 20
-170.4424922796504
 30
0.0
 40
0.2489395077601277
100
AcDbArc
 50
320.2580479668642
 51
347.0820077763917
  0
ARC
  5
373
330
449
100
AcDbEntity
  8
DATA
  6
Continuous
 62
     7
100
AcDbCircle
 10
162.2889121027958
 20
-170.5190730215995
 30
0.0
 40
0.1719593568651298
100
AcDbArc
 50
196.1757341157598
 51
230.6447414474216
  0
ARC
  5
374
330
449
100
AcDbEntity
  8
DATA
  6
Continuous
 62
     7
100
AcDbCircle
 10
162.3233844156316
 20
-170.5073358855247
 30
0.0
 40
0.2083434395956526
100
AcDbArc
 50
166.333948547512
 51
196.6347345165269
  0
ARC
  5
375
330
449
100
AcDbEntity
  8
DATA
  6
Continuous
 62
     7
100
AcDbCircle
 10
162.3635784367543
 20
-170.5137641255541
 30
0.0
 40
0.2489395077601277
100
AcDbArc
 50
140.2580479668641
 51
167.0820077763917
  0
ARC
  5
376
330
449
100
AcDbEntity
  8
DATA
  6
Continuous
 62
     7
100
AcDbCircle
 10
162.3562200516929
 20
-170.4370798052228
 30
0.0
 40
0.1719593568651381
100
AcDbArc
 50
50.59034900762896
 51
85.05935633930244
  0
ARC
  5
377
330
449
100
AcDbEntity
  8
DATA
  6
Continuous
 62
     7
100
AcDbCircle
 10
162.3514242622731
 20
-170.4731782971488
 30
0.0
 40
0.2083434395956015
100
AcDbArc
 50
84.60035593855035
 51
114.9011419075694
  0
ARC
  5
378
330
449
100
AcDbEntity
  8
DATA
  6
Continuous
 62
     7
100
AcDbCircle
 10
162.3655605175161
 20
-170.5113495938467
 30
0.0
 40
0.2489395077601579
100
AcDbArc
 50
114.1530826786818
 51
140.9770424881939
  0
ARC
  5
379
330
449
100
AcDbEntity
  8
DATA
  6
Continuous
 62
     7
100
AcDbCircle
 10
162.1660276698897
 20
-171.5149201984634
 30
0.0
 40
0.1242832178072054
100
AcDbArc
 50
231.3925939077409
 51
271.3852342831586
  0
ARC
  5
37A
330
449
100
AcDbEntity
  8
DATA
  6
Continuous
 62
     7
100
AcDbCircle
 10
162.1668147937421
 20
-171.4409926948814
 30
0.0
 40
0.1981868046203316
100
AcDbArc
 50
270.6410536706509
 51
300.1158720528168
  0
ARC
  5
37B
330
449
100
AcDbEntity
  8
DATA
  6
Continuous
 62
     7
100
AcDbCircle
 10
162.1250696441854
 20
-171.3543120247469
 30
0.0
 40
0.2942049353629997
100
AcDbArc
 50
298.6780954586452
 51
321.1194615041216
  0
ARC
  5
37C
330
449
100
AcDbEntity
  8
DATA
  6
Continuous
 62
     7
100
AcDbCircle
 10
162.2938504580945
 20
-171.3592089978864
 30
0.0
 40
0.1242832178072477
100
AcDbArc
 50
9.849856171917522
 51
49.84249654733666
  0
ARC
  5
37D
330
449
100
AcDbEntity
  8
DATA
  6
Continuous
 62
     7
100
AcDbCircle
 10
162.2214930595269
 20
-171.3743847094792
 30
0.0
 40
0.198186804620354
100
AcDbArc
 50
341.1192184022525
 51
10.59403678442732
  0
ARC
  5
37E
330
449
100
AcDbEntity
  8
DATA
  6
Continuous
 62
     7
100
AcDbCircle
 10
162.1283401163924
 20
-171.3503279999813
 30
0.0
 40
0.2942049353630827
100
AcDbArc
 50
320.115628950949
 51
342.556994996411
  0
ARC
  5
37F
330
449
100
AcDbEntity
  8
DATA
  6
Continuous
 62
     7
100
AcDbCircle
 10
162.1686264801679
 20
-171.5170535528692
 30
0.0
 40
0.1242832178072477
100
AcDbArc
 50
189.8498561719175
 51
229.8424965473736
  0
ARC
  5
380
330
449
100
AcDbEntity
  8
DATA
  6
Continuous
 62
     7
100
AcDbCircle
 10
162.2409838787356
 20
-171.5018778412764
 30
0.0
 40
0.1981868046203632
100
AcDbArc
 50
161.1192184022447
 51
190.5940367844192
  0
ARC
  5
381
330
449
100
AcDbEntity
  8
DATA
  6
Continuous
 62
     7
100
AcDbCircle
 10
162.33413682187
 20
-171.5259345507742
 30
0.0
 40
0.2942049353630827
100
AcDbArc
 50
140.115628950949
 51
162.5569949964111
  0
ARC
  5
382
330
449
100
AcDbEntity
  8
DATA
  6
Continuous
 62
     7
100
AcDbCircle
 10
162.2964492683728
 20
-171.3613423522922
 30
0.0
 40
0.1242832178072187
100
AcDbArc
 50
51.39259390771229
 51
91.38523428315835
  0
ARC
  5
383
330
449
100
AcDbEntity
  8
DATA
  6
Continuous
 62
     7
100
AcDbCircle
 10
162.2956621445204
 20
-171.4352698558742
 30
0.0
 40
0.19818680462036
100
AcDbArc
 50
90.64105367065078
 51
120.1158720528127
  0
ARC
  5
384
330
449
100
AcDbEntity
  8
DATA
  6
Continuous
 62
     7
100
AcDbCircle
 10
162.337407294077
 20
-171.5219505260087
 30
0.0
 40
0.2942049353630247
100
AcDbArc
 50
118.6780954586426
 51
141.1194615041172
  0
ARC
  5
385
330
449
100
AcDbEntity
  8
DATA
  6
Continuous
 62
     7
100
AcDbCircle
 10
162.6736227542374
 20
-170.8965778739003
 30
0.0
 40
0.1242832178072764
100
AcDbArc
 50
231.3925939077
 51
271.3852342831064
  0
ARC
  5
386
330
449
100
AcDbEntity
  8
DATA
  6
Continuous
 62
     7
100
AcDbCircle
 10
162.6744098780897
 20
-170.8226503703183
 30
0.0
 40
0.1981868046203594
100
AcDbArc
 50
270.6410536706345
 51
300.115872052827
  0
ARC
  5
387
330
449
100
AcDbEntity
  8
DATA
  6
Continuous
 62
     7
100
AcDbCircle
 10
162.6326647285331
 20
-170.7359697001838
 30
0.0
 40
0.2942049353630519
100
AcDbArc
 50
298.6780954586523
 51
321.1194615041173
  0
ARC
  5
388
330
449
100
AcDbEntity
  8
DATA
  6
Continuous
 62
     7
100
AcDbCircle
 10
162.8014455424422
 20
-170.7408666733233
 30
0.0
 40
0.1242832178071917
100
AcDbArc
 50
9.849856171922008
 51
49.8424965473567
  0
ARC
  5
389
330
449
100
AcDbEntity
  8
DATA
  6
Continuous
 62
     7
100
AcDbCircle
 10
162.7290881438746
 20
-170.7560423849161
 30
0.0
 40
0.198186804620354
100
AcDbArc
 50
341.1192184022525
 51
10.59403678442226
  0
ARC
  5
38A
330
449
100
AcDbEntity
  8
DATA
  6
Continuous
 62
     7
100
AcDbCircle
 10
162.6359352007401
 20
-170.7319856754183
 30
0.0
 40
0.2942049353630827
100
AcDbArc
 50
320.115628950949
 51
342.5569949964196
  0
ARC
  5
38B
330
449
100
AcDbEntity
  8
DATA
  6
Continuous
 62
     7
100
AcDbCircle
 10
162.6762215645156
 20
-170.8987112283061
 30
0.0
 40
0.1242832178071868
100
AcDbArc
 50
189.8498561719091
 51
229.8424965473536
  0
ARC
  5
38C
330
449
100
AcDbEntity
  8
DATA
  6
Continuous
 62
     7
100
AcDbCircle
 10
162.7485789630833
 20
-170.8835355167132
 30
0.0
 40
0.1981868046204078
100
AcDbArc
 50
161.1192184022578
 51
190.5940367844192
  0
ARC
  5
38D
330
449
100
AcDbEntity
  8
DATA
  6
Continuous
 62
     7
100
AcDbCircle
 10
162.8417319062177
 20
-170.9075922262111
 30
0.0
 40
0.2942049353630645
100
AcDbArc
 50
140.1156289509532
 51
162.5569949964197
  0
ARC
  5
38E
330
449
100
AcDbEntity
  8
DATA
  6
Continuous
 62
     7
100
AcDbCircle
 10
162.8040443527205
 20
-170.7430000277291
 30
0.0
 40
0.1242832178072187
100
AcDbArc
 50
51.39259390771229
 51
91.38523428315835
  0
ARC
  5
38F
330
449
100
AcDbEntity
  8
DATA
  6
Continuous
 62
     7
100
AcDbCircle
 10
162.8032572288681
 20
-170.8169275313111
 30
0.0
 40
0.1981868046203322
100
AcDbArc
 50
90.6410536706673
 51
120.115872052831
  0
ARC
  5
390
330
449
100
AcDbEntity
  8
DATA
  6
Continuous
 62
     7
100
AcDbCircle
 10
162.8450023784247
 20
-170.9036082014457
 30
0.0
 40
0.2942049353630769
100
AcDbArc
 50
118.6780954586496
 51
141.1194615041129
  0
ARC
  5
391
330
449
100
AcDbEntity
  8
DATA
  6
Continuous
 62
     7
100
AcDbCircle
 10
162.4517579437353
 20
-171.8164196868616
 30
0.0
 40
0.0725796082927536
100
AcDbArc
 50
232.7661314011803
 51
284.887302273341
  0
ARC
  5
392
330
449
100
AcDbEntity
  8
DATA
  6
Continuous
 62
     7
100
AcDbCircle
 10
162.4229454916973
 20
-171.6674957183822
 30
0.0
 40
0.2241492505947472
100
AcDbArc
 50
282.2238544176412
 51
305.9241263219342
  0
ARC
  5
393
330
449
100
AcDbEntity
  8
DATA
  6
Continuous
 62
     7
100
AcDbCircle
 10
162.3156345613899
 20
-171.5096268588644
 30
0.0
 40
0.4149908473630567
100
AcDbArc
 50
305.1338221480336
 51
320.8539313596025
  0
ARC
  5
394
330
449
100
AcDbEntity
  8
DATA
  6
Continuous
 62
     7
100
AcDbCircle
 10
162.6452422994364
 20
-171.5807208592723
 30
0.0
 40
0.0725796082927602
100
AcDbArc
 50
356.3477881817358
 51
48.46895905387161
  0
ARC
  5
395
330
449
100
AcDbEntity
  8
DATA
  6
Continuous
 62
     7
100
AcDbCircle
 10
162.4935586310196
 20
-171.5814761841911
 30
0.0
 40
0.2241492505948181
100
AcDbArc
 50
335.3109641331349
 51
359.0112360374238
  0
ARC
  5
396
330
449
100
AcDbEntity
  8
DATA
  6
Continuous
 62
     7
100
AcDbCircle
 10
162.3178072328759
 20
-171.5069801532942
 30
0.0
 40
0.4149908473631163
100
AcDbArc
 50
320.381159095467
 51
336.1012683070334
  0
ARC
  5
397
330
449
100
AcDbEntity
  8
DATA
  6
Continuous
 62
     7
100
AcDbCircle
 10
162.4559643571641
 20
-171.8198727171563
 30
0.0
 40
0.0725796082927638
100
AcDbArc
 50
176.3477881816911
 51
228.4689590538568
  0
ARC
  5
398
330
449
100
AcDbEntity
  8
DATA
  6
Continuous
 62
     7
100
AcDbCircle
 10
162.6076480255809
 20
-171.8191173922375
 30
0.0
 40
0.2241492505947664
100
AcDbArc
 50
155.3109641331288
 51
179.0112360374091
  0
ARC
  5
399
330
449
100
AcDbEntity
  8
DATA
  6
Continuous
 62
     7
100
AcDbCircle
 10
162.7833994237246
 20
-171.8936134231344
 30
0.0
 40
0.4149908473631163
100
AcDbArc
 50
140.381159095467
 51
156.1012683070302
  0
ARC
  5
39A
330
449
100
AcDbEntity
  8
DATA
  6
Continuous
 62
     7
100
AcDbCircle
 10
162.6494487128653
 20
-171.584173889567
 30
0.0
 40
0.0725796082926965
100
AcDbArc
 50
52.7661314012024
 51
104.8873022733902
  0
ARC
  5
39B
330
449
100
AcDbEntity
  8
DATA
  6
Continuous
 62
     7
100
AcDbCircle
 10
162.6782611649032
 20
-171.7330978580464
 30
0.0
 40
0.224149250594787
100
AcDbArc
 50
102.2238544176539
 51
125.9241263219299
  0
ARC
  5
39C
330
449
100
AcDbEntity
  8
DATA
  6
Continuous
 62
     7
100
AcDbCircle
 10
162.7855720952105
 20
-171.8909667175641
 30
0.0
 40
0.4149908473630472
100
AcDbArc
 50
125.1338221480249
 51
140.8539313596025
  0
ARC
  5
39D
330
449
100
AcDbEntity
  8
DATA
  6
Continuous
 62
     7
100
AcDbCircle
 10
162.959353028083
 20
-171.1980773622985
 30
0.0
 40
0.072579608292788
100
AcDbArc
 50
232.7661314011445
 51
284.887302273341
  0
ARC
  5
39E
330
449
100
AcDbEntity
  8
DATA
  6
Continuous
 62
     7
100
AcDbCircle
 10
162.930540576045
 20
-171.0491533938191
 30
0.0
 40
0.2241492505947592
100
AcDbArc
 50
282.2238544176554
 51
305.9241263219342
  0
ARC
  5
39F
330
449
100
AcDbEntity
  8
DATA
  6
Continuous
 62
     7
100
AcDbCircle
 10
162.8232296457376
 20
-170.8912845343014
 30
0.0
 40
0.4149908473630239
100
AcDbArc
 50
305.1338221480271
 51
320.8539313595957
  0
ARC
  5
3A0
330
449
100
AcDbEntity
  8
DATA
  6
Continuous
 62
     7
100
AcDbCircle
 10
163.1528373837841
 20
-170.9623785347092
 30
0.0
 40
0.0725796082927053
100
AcDbArc
 50
356.3477881817107
 51
48.46895905389033
  0
ARC
  5
3A1
330
449
100
AcDbEntity
  8
DATA
  6
Continuous
 62
     7
100
AcDbCircle
 10
163.0011537153673
 20
-170.9631338596279
 30
0.0
 40
0.2241492505947783
100
AcDbArc
 50
335.3109641331222
 51
359.0112360374164
  0
ARC
  5
3A2
330
449
100
AcDbEntity
  8
DATA
  6
Continuous
 62
     7
100
AcDbCircle
 10
162.8254023172235
 20
-170.8886378287311
 30
0.0
 40
0.4149908473630724
100
AcDbArc
 50
320.381159095462
 51
336.1012683070267
  0
ARC
  5
3A3
330
449
100
AcDbEntity
  8
DATA
  6
Continuous
 62
     7
100
AcDbCircle
 10
162.9635594415118
 20
-171.2015303925932
 30
0.0
 40
0.0725796082927638
100
AcDbArc
 50
176.3477881816911
 51
228.4689590538568
  0
ARC
  5
3A4
330
449
100
AcDbEntity
  8
DATA
  6
Continuous
 62
     7
100
AcDbCircle
 10
163.1152431099285
 20
-171.2007750676744
 30
0.0
 40
0.2241492505947664
100
AcDbArc
 50
155.3109641331288
 51
179.0112360374091
  0
ARC
  5
3A5
330
449
100
AcDbEntity
  8
DATA
  6
Continuous
 62
     7
100
AcDbCircle
 10
163.2909945080723
 20
-171.2752710985712
 30
0.0
 40
0.4149908473630982
100
AcDbArc
 50
140.3811590954701
 51
156.101268307037
  0
ARC
  5
3A6
330
449
100
AcDbEntity
  8
DATA
  6
Continuous
 62
     7
100
AcDbCircle
 10
163.1570437972129
 20
-170.9658315650038
 30
0.0
 40
0.0725796082926965
100
AcDbArc
 50
52.7661314012024
 51
104.8873022733468
  0
ARC
  5
3A7
330
449
100
AcDbEntity
  8
DATA
  6
Continuous
 62
     7
100
AcDbCircle
 10
163.1858562492508
 20
-171.1147555334833
 30
0.0
 40
0.2241492505947472
100
AcDbArc
 50
102.2238544176413
 51
125.9241263219459
  0
ARC
  5
3A8
330
449
100
AcDbEntity
  8
DATA
  6
Continuous
 62
     7
100
AcDbCircle
 10
163.2931671795583
 20
-171.272624393001
 30
0.0
 40
0.4149908473630894
100
AcDbArc
 50
125.1338221480399
 51
140.8539313596055
  0
ARC
  5
3A9
330
449
100
AcDbEntity
  8
DATA
  6
Continuous
 62
     7
100
AcDbCircle
 10
162.6184447794887
 20
-172.027878979926
 30
0.0
 40
0.0148575414582421
100
AcDbArc
 50
228.5179131978351
 51
269.0250430957365
  0
ARC
  5
3AA
330
449
100
AcDbEntity
  8
DATA
  6
Continuous
 62
     7
100
AcDbCircle
 10
162.1979238689533
 20
-171.4147325027793
 30
0.0
 40
0.7717112153217091
100
AcDbArc
 50
312.4641019045664
 51
320.8441674764775
  0
ARC
  5
3AB
330
449
100
AcDbEntity
  8
DATA
  6
Continuous
 62
     7
100
AcDbCircle
 10
162.5013321500863
 20
-171.7515130213191
 30
0.0
 40
0.3194673992622871
100
AcDbArc
 50
297.7769944106828
 51
302.6693186332258
  0
ARC
  5
3AC
330
449
100
AcDbEntity
  8
DATA
  6
Continuous
 62
     7
100
AcDbCircle
 10
162.4191437372502
 20
-171.6585382573779
 30
0.0
 40
0.4425060695938324
100
AcDbArc
 50
305.1301200875859
 51
312.6461674090783
  0
ARC
  5
3AD
330
449
100
AcDbEntity
  8
DATA
  6
Continuous
 62
     7
100
AcDbCircle
 10
162.6066298323767
 20
-171.9489611037009
 30
0.0
 40
0.0957064659492185
100
AcDbArc
 50
283.8448771456504
 51
297.0902971625154
  0
ARC
  5
3AE
330
449
100
AcDbEntity
  8
DATA
  6
Continuous
 62
     7
100
AcDbCircle
 10
162.6211089567392
 20
-172.0054687399382
 30
0.0
 40
0.0373796202719719
100
AcDbArc
 50
265.5242730750059
 51
283.0224597560203
  0
ARC
  5
3AF
330
449
100
AcDbEntity
  8
DATA
  6
Continuous
 62
     7
100
AcDbCircle
 10
162.8851256349622
 20
-171.7030136193761
 30
0.0
 40
0.014857541458287
100
AcDbArc
 50
12.21004735924968
 51
52.71717725721791
  0
ARC
  5
3B0
330
449
100
AcDbEntity
  8
DATA
  6
Continuous
 62
     7
100
AcDbCircle
 10
162.2017972570048
 20
-171.4100140178186
 30
0.0
 40
0.7717112153216346
100
AcDbArc
 50
320.3909229785885
 51
328.7709885505023
  0
ARC
  5
3B1
330
449
100
AcDbEntity
  8
DATA
  6
Continuous
 62
     7
100
AcDbCircle
 10
162.5912382995371
 20
-171.6419911225494
 30
0.0
 40
0.3194673992622836
100
AcDbArc
 50
338.5657718218239
 51
343.4580960443786
  0
ARC
  5
3B2
330
449
100
AcDbEntity
  8
DATA
  6
Continuous
 62
     7
100
AcDbCircle
 10
162.4840321154869
 20
-171.5794925142782
 30
0.0
 40
0.442506069593793
100
AcDbArc
 50
328.5889230459948
 51
336.1049703674751
  0
ARC
  5
3B3
330
449
100
AcDbEntity
  8
DATA
  6
Continuous
 62
     7
100
AcDbCircle
 10
162.8054181734928
 20
-171.7068010656466
 30
0.0
 40
0.0957064659492388
100
AcDbArc
 50
344.1447932925465
 51
357.3902133094164
  0
ARC
  5
3B4
330
449
100
AcDbEntity
  8
DATA
  6
Continuous
 62
     7
100
AcDbCircle
 10
162.8636639397332
 20
-171.7099930416035
 30
0.0
 40
0.037379620271962
100
AcDbArc
 50
358.2126306990216
 51
15.71081737990562
  0
ARC
  5
3B5
330
449
100
AcDbEntity
  8
DATA
  6
Continuous
 62
     7
100
AcDbCircle
 10
162.6176033082344
 20
-172.0271882190719
 30
0.0
 40
0.0148575414582315
100
AcDbArc
 50
192.2100473592961
 51
232.7171772575004
  0
ARC
  5
3B6
330
449
100
AcDbEntity
  8
DATA
  6
Continuous
 62
     7
100
AcDbCircle
 10
163.300931686192
 20
-172.3201878206294
 30
0.0
 40
0.7717112153217146
100
AcDbArc
 50
140.3909229785881
 51
148.7709885504987
  0
ARC
  5
3B7
330
449
100
AcDbEntity
  8
DATA
  6
Continuous
 62
     7
100
AcDbCircle
 10
162.9114906436597
 20
-172.0882107158986
 30
0.0
 40
0.3194673992623365
100
AcDbArc
 50
158.5657718218276
 51
163.4580960443766
  0
ARC
  5
3B8
330
449
100
AcDbEntity
  8
DATA
  6
Continuous
 62
     7
100
AcDbCircle
 10
163.0186968277099
 20
-172.1507093241697
 30
0.0
 40
0.4425060695938415
100
AcDbArc
 50
148.5889230459985
 51
156.1049703674844
  0
ARC
  5
3B9
330
449
100
AcDbEntity
  8
DATA
  6
Continuous
 62
     7
100
AcDbCircle
 10
162.6973107697039
 20
-172.0234007728014
 30
0.0
 40
0.0957064659492388
100
AcDbArc
 50
164.1447932925465
 51
177.3902133094149
  0
ARC
  5
3BA
330
449
100
AcDbEntity
  8
DATA
  6
Continuous
 62
     7
100
AcDbCircle
 10
162.6390650034635
 20
-172.0202087968445
 30
0.0
 40
0.0373796202719061
100
AcDbArc
 50
178.2126306989754
 51
195.7108173798873
  0
ARC
  5
3BB
330
449
100
AcDbEntity
  8
DATA
  6
Continuous
 62
     7
100
AcDbCircle
 10
162.884284163708
 20
-171.7023228585219
 30
0.0
 40
0.0148575414583174
100
AcDbArc
 50
48.51791319750663
 51
89.02504309573471
  0
ARC
  5
3BC
330
449
100
AcDbEntity
  8
DATA
  6
Continuous
 62
     7
100
AcDbCircle
 10
163.3048050742435
 20
-172.3154693356686
 30
0.0
 40
0.7717112153217091
100
AcDbArc
 50
132.4641019045664
 51
140.8441674764828
  0
ARC
  5
3BD
330
449
100
AcDbEntity
  8
DATA
  6
Continuous
 62
     7
100
AcDbCircle
 10
163.0013967931105
 20
-171.9786888171288
 30
0.0
 40
0.319467399262315
100
AcDbArc
 50
117.7769944107032
 51
122.6693186332371
  0
ARC
  5
3BE
330
449
100
AcDbEntity
  8
DATA
  6
Continuous
 62
     7
100
AcDbCircle
 10
163.0835852059465
 20
-172.0716635810701
 30
0.0
 40
0.4425060695937763
100
AcDbArc
 50
125.1301200875819
 51
132.6461674090674
  0
ARC
  5
3BF
330
449
100
AcDbEntity
  8
DATA
  6
Continuous
 62
     7
100
AcDbCircle
 10
162.8960991108201
 20
-171.7812407347471
 30
0.0
 40
0.0957064659492461
100
AcDbArc
 50
103.8448771456463
 51
117.0902971625758
  0
ARC
  5
3C0
330
449
100
AcDbEntity
  8
DATA
  6
Continuous
 62
     7
100
AcDbCircle
 10
162.8816199864575
 20
-171.7247330985097
 30
0.0
 40
0.0373796202719108
100
AcDbArc
 50
85.52427307508599
 51
103.022459755955
  0
ARC
  5
3C1
330
449
100
AcDbEntity
  8
DATA
  6
Continuous
 62
     7
100
AcDbCircle
 10
163.1260398638364
 20
-171.4095366553629
 30
0.0
 40
0.0148575414582421
100
AcDbArc
 50
228.5179131978351
 51
269.0250430959539
  0
ARC
  5
3C2
330
449
100
AcDbEntity
  8
DATA
  6
Continuous
 62
     7
100
AcDbCircle
 10
162.705518953301
 20
-170.7963901782163
 30
0.0
 40
0.7717112153217091
100
AcDbArc
 50
312.4641019045664
 51
320.8441674764828
  0
ARC
  5
3C3
330
449
100
AcDbEntity
  8
DATA
  6
Continuous
 62
     7
100
AcDbCircle
 10
163.0089272344339
 20
-171.133170696756
 30
0.0
 40
0.3194673992622368
100
AcDbArc
 50
297.7769944106875
 51
302.6693186332344
  0
ARC
  5
3C4
330
449
100
AcDbEntity
  8
DATA
  6
Continuous
 62
     7
100
AcDbCircle
 10
162.9267388215979
 20
-171.0401959328148
 30
0.0
 40
0.4425060695938555
100
AcDbArc
 50
305.1301200875837
 51
312.6461674090704
  0
ARC
  5
3C5
330
449
100
AcDbEntity
  8
DATA
  6
Continuous
 62
     7
100
AcDbCircle
 10
163.1142249167244
 20
-171.3306187791378
 30
0.0
 40
0.0957064659492461
100
AcDbArc
 50
283.8448771456463
 51
297.0902971624927
  0
ARC
  5
3C6
330
449
100
AcDbEntity
  8
DATA
  6
Continuous
 62
     7
100
AcDbCircle
 10
163.1287040410868
 20
-171.3871264153751
 30
0.0
 40
0.0373796202719347
100
AcDbArc
 50
265.5242730751762
 51
283.0224597561052
  0
ARC
  5
3C7
330
449
100
AcDbEntity
  8
DATA
  6
Continuous
 62
     7
100
AcDbCircle
 10
163.3927207193099
 20
-171.084671294813
 30
0.0
 40
0.0148575414582255
100
AcDbArc
 50
12.21004735918892
 51
52.71717725750034
  0
ARC
  5
3C8
330
449
100
AcDbEntity
  8
DATA
  6
Continuous
 62
     7
100
AcDbCircle
 10
162.7093923413524
 20
-170.7916716932554
 30
0.0
 40
0.7717112153216964
100
AcDbArc
 50
320.3909229785897
 51
328.7709885505003
  0
ARC
  5
3C9
330
449
100
AcDbEntity
  8
DATA
  6
Continuous
 62
     7
100
AcDbCircle
 10
163.0988333838848
 20
-171.0236487979863
 30
0.0
 40
0.3194673992623365
100
AcDbArc
 50
338.5657718218276
 51
343.4580960443767
  0
ARC
  5
3CA
330
449
100
AcDbEntity
  8
DATA
  6
Continuous
 62
     7
100
AcDbCircle
 10
162.9916271998346
 20
-170.9611501897152
 30
0.0
 40
0.4425060695937444
100
AcDbArc
 50
328.5889230459909
 51
336.1049703674785
  0
ARC
  5
3CB
330
449
100
AcDbEntity
  8
DATA
  6
Continuous
 62
     7
100
AcDbCircle
 10
163.3130132578406
 20
-171.0884587410835
 30
0.0
 40
0.0957064659492388
100
AcDbArc
 50
344.1447932925465
 51
357.3902133094149
  0
ARC
  5
3CC
330
449
100
AcDbEntity
  8
DATA
  6
Continuous
 62
     7
100
AcDbCircle
 10
163.3712590240809
 20
-171.0916507170404
 30
0.0
 40
0.0373796202719061
100
AcDbArc
 50
358.2126306989754
 51
15.71081737988731
  0
ARC
  5
3CD
330
449
100
AcDbEntity
  8
DATA
  6
Continuous
 62
     7
100
AcDbCircle
 10
163.1251983925821
 20
-171.4088458945087
 30
0.0
 40
0.0148575414583426
100
AcDbArc
 50
192.2100473592032
 51
232.7171772573258
  0
ARC
  5
3CE
330
449
100
AcDbEntity
  8
DATA
  6
Continuous
 62
     7
100
AcDbCircle
 10
163.8085267705397
 20
-171.7018454960664
 30
0.0
 40
0.7717112153216709
100
AcDbArc
 50
140.3909229785853
 51
148.7709885505026
  0
ARC
  5
3CF
330
449
100
AcDbEntity
  8
DATA
  6
Continuous
 62
     7
100
AcDbCircle
 10
163.4190857280073
 20
-171.4698683913355
 30
0.0
 40
0.3194673992622203
100
AcDbArc
 50
158.5657718218248
 51
163.4580960443708
  0
ARC
  5
3D0
330
449
100
AcDbEntity
  8
DATA
  6
Continuous
 62
     7
100
AcDbCircle
 10
163.5262919120575
 20
-171.5323669996066
 30
0.0
 40
0.4425060695938268
100
AcDbArc
 50
148.5889230460017
 51
156.1049703674818
  0
ARC
  5
3D1
330
449
100
AcDbEntity
  8
DATA
  6
Continuous
 62
     7
100
AcDbCircle
 10
163.2049058540516
 20
-171.4050584482382
 30
0.0
 40
0.0957064659492388
100
AcDbArc
 50
164.1447932925465
 51
177.3902133094335
  0
ARC
  5
3D2
330
449
100
AcDbEntity
  8
DATA
  6
Continuous
 62
     7
100
AcDbCircle
 10
163.1466600878112
 20
-171.4018664722814
 30
0.0
 40
0.037379620271962
100
AcDbArc
 50
178.2126306990216
 51
195.7108173798821
  0
ARC
  5
3D3
330
449
100
AcDbEntity
  8
DATA
  6
Continuous
 62
     7
100
AcDbCircle
 10
163.3918792480556
 20
-171.0839805339588
 30
0.0
 40
0.0148575414582797
100
AcDbArc
 50
48.51791319767088
 51
89.02504309551739
  0
ARC
  5
3D4
330
449
100
AcDbEntity
  8
DATA
  6
Continuous
 62
     7
100
AcDbCircle
 10
163.8124001585911
 20
-171.6971270111055
 30
0.0
 40
0.7717112153217091
100
AcDbArc
 50
132.4641019045664
 51
140.8441674764785
  0
ARC
  5
3D5
330
449
100
AcDbEntity
  8
DATA
  6
Continuous
 62
     7
100
AcDbCircle
 10
163.5089918774582
 20
-171.3603464925657
 30
0.0
 40
0.3194673992622898
100
AcDbArc
 50
117.7769944107055
 51
122.6693186332457
  0
ARC
  5
3D6
330
449
100
AcDbEntity
  8
DATA
  6
Continuous
 62
     7
100
AcDbCircle
 10
163.5911802902942
 20
-171.453321256507
 30
0.0
 40
0.4425060695938555
100
AcDbArc
 50
125.1301200875837
 51
132.6461674090703
  0
ARC
  5
3D7
330
449
100
AcDbEntity
  8
DATA
  6
Continuous
 62
     7
100
AcDbCircle
 10
163.4036941951677
 20
-171.162898410184
 30
0.0
 40
0.0957064659492185
100
AcDbArc
 50
103.8448771456503
 51
117.0902971625533
  0
ARC
  5
3D8
330
449
100
AcDbEntity
  8
DATA
  6
Continuous
 62
     7
100
AcDbCircle
 10
163.3892150708052
 20
-171.1063907739467
 30
0.0
 40
0.0373796202719719
100
AcDbArc
 50
85.52427307500593
 51
103.0224597559452
  0
ENDSEC
  0
SECTION
  2
OBJECTS
  0
DICTIONARY
  5
3E6
330
0
100
AcDbDictionary
281
     1
  3
ACAD_CIP_PREVIOUS_PRODUCT_INFO
350
461
  3
ACAD_COLOR
350
43C
  3
ACAD_DETAILVIEWSTYLE
350
443
  3
ACAD_GROUP
350
3E7
  3
ACAD_LAYOUT
350
43B
  3
ACAD_MATERIAL
350
3EA
  3
ACAD_MLEADERSTYLE
350
43F
  3
ACAD_MLINESTYLE
350
438
  3
ACAD_PLOTSETTINGS
350
43A
  3
ACAD_PLOTSTYLENAME
350
3E8
  3
ACAD_SCALELIST
350
41C
  3
ACAD_SECTIONVIEWSTYLE
350
441
  3
ACAD_TABLESTYLE
350
43D
  3
ACAD_VISUALSTYLE
350
403
  3
ACDB_RECOMPOSE_DATA
350
479
  3
AcDbVariableDictionary
350
46C
  3
DWGPROPS
350
47A
  0
DICTIONARY
  5
462
330
42E
100
AcDbDictionary
280
     1
281
     1
  3
ADSK_XREC_LAYER_RECONCILED
360
463
  0
DICTIONARY
  5
464
330
44D
100
AcDbDictionary
280
     1
281
     1
  3
ADSK_XREC_LAYER_RECONCILED
360
465
  0
DICTIONARY
  5
466
330
459
100
AcDbDictionary
280
     1
281
     1
  3
ADSK_XREC_LAYER_RECONCILED
360
467
  0
DICTIONARY
  5
468
330
45A
100
AcDbDictionary
280
     1
281
     1
  3
ADSK_XREC_LAYER_RECONCILED
360
469
  0
DICTIONARY
  5
46A
330
45B
100
AcDbDictionary
280
     1
281
     1
  3
ADSK_XREC_LAYER_RECONCILED
360
46B
  0
XRECORD
  5
461
102
{ACAD_REACTORS
330
3E6
102
}
330
3E6
100
AcDbXrecord
280
     1
300
ACDLT
300
2017
300
ACDLT_F_S
  0
DICTIONARY
  5
43C
102
{ACAD_REACTORS
330
3E6
102
}
330
3E6
100
AcDbDictionary
281
     1
  0
DICTIONARY
  5
443
102
{ACAD_REACTORS
330
3E6
102
}
330
3E6
100
AcDbDictionary
281
     1
  3
Imperial24
350
444
  0
DICTIONARY
  5
3E7
102
{ACAD_REACTORS
330
3E6
102
}
330
3E6
100
AcDbDictionary
281
     1
  0
DICTIONARY
  5
43B
102
{ACAD_REACTORS
330
3E6
102
}
330
3E6
100
AcDbDictionary
281
     1
  3
Model
350
44C
  3
レイアウト1
350
448
  0
DICTIONARY
  5
3EA
102
{ACAD_REACTORS
330
3E6
102
}
330
3E6
100
AcDbDictionary
281
     1
  3
ByBlock
350
3F3
  3
ByLayer
350
3EB
  3
Global
350
3FB
  0
DICTIONARY
  5
43F
102
{ACAD_REACTORS
330
3E6
102
}
330
3E6
100
AcDbDictionary
281
     1
  3
Standard
350
440
  0
DICTIONARY
  5
438
102
{ACAD_REACTORS
330
3E6
102
}
330
3E6
100
AcDbDictionary
281
     1
  3
Standard
350
439
  0
DICTIONARY
  5
43A
102
{ACAD_REACTORS
330
3E6
102
}
330
3E6
100
AcDbDictionary
281
     1
  0
ACDBDICTIONARYWDFLT
  5
3E8
102
{ACAD_REACTORS
330
3E6
102
}
330
3E6
100
AcDbDictionary
281
     1
  3
Normal
350
3E9
100
AcDbDictionaryWithDefault
340
3E9
  0
DICTIONARY
  5
41C
102
{ACAD_REACTORS
330
3E6
102
}
330
3E6
100
AcDbDictionary
281
     1
  3
A0
350
41D
  3
A1
350
41E
  3
A2
350
41F
  3
A3
350
420
  3
A4
350
421
  3
A5
350
422
  3
A6
350
423
  3
A7
350
424
  3
A8
350
425
  3
A9
350
426
  3
B0
350
427
  3
B1
350
428
  3
B2
350
429
  3
B3
350
42A
  3
B4
350
42B
  3
B5
350
42C
  3
B6
350
42D
  0
DICTIONARY
  5
441
102
{ACAD_REACTORS
330
3E6
102
}
330
3E6
100
AcDbDictionary
281
     1
  3
Imperial24
350
442
  0
DICTIONARY
  5
43D
102
{ACAD_REACTORS
330
3E6
102
}
330
3E6
100
AcDbDictionary
281
     1
  3
Standard
350
43E
  0
DICTIONARY
  5
403
102
{ACAD_REACTORS
330
3E6
102
}
330
3E6
100
AcDbDictionary
281
     1
  3
2dWireframe
350
409
  3
Basic
350
408
  3
Brighten
350
40F
  3
ColorChange
350
413
  3
Conceptual
350
40C
  3
Dim
350
40E
  3
EdgeColorOff
350
41B
  3
Facepattern
350
412
  3
Flat
350
404
  3
FlatWithEdges
350
405
  3
Gouraud
350
406
  3
GouraudWithEdges
350
407
  3
Hidden
350
40B
  3
JitterOff
350
419
  3
Linepattern
350
411
  3
OverhangOff
350
41A
  3
Realistic
350
40D
  3
Shaded
350
418
  3
Shaded with edges
350
417
  3
Shades of Gray
350
414
  3
Sketchy
350
415
  3
Thicken
350
410
  3
Wireframe
350
40A
  3
X-Ray
350
416
  0
XRECORD
  5
479
102
{ACAD_REACTORS
330
3E6
102
}
330
3E6
100
AcDbXrecord
280
     1
 90
        1
330
43E
  0
DICTIONARY
  5
46C
102
{ACAD_REACTORS
330
3E6
102
}
330
3E6
100
AcDbDictionary
281
     1
  3
CANNOSCALE
350
471
  3
CMLEADERSTYLE
350
46E
  3
CTABLESTYLE
350
46D
  3
CVIEWDETAILSTYLE
350
46F
  3
CVIEWSECTIONSTYLE
350
470
  3
DIMASSOC
350
474
  3
INDEXCTL
350
473
  3
SORTENTS
350
472
  3
XCLIPFRAME
350
475
  0
XRECORD
  5
47A
102
{ACAD_REACTORS
330
3E6
102
}
330
3E6
100
AcDbXrecord
280
     1
  1
DWGPROPS COOKIE
  2

  3

  4

  6

  7

  8
sasaki_n
  9

300
=
301
=
302
=
303
=
304
=
305
=
306
=
307
=
308
=
309
=
 40
0.0002893518518519
 41
2457834.577592593
 42
2457834.588379629
  1

 90
        0
  0
XRECORD
  5
463
102
{ACAD_REACTORS
330
462
102
}
330
462
100
AcDbXrecord
280
     1
290
     1
  0
XRECORD
  5
465
102
{ACAD_REACTORS
330
464
102
}
330
464
100
AcDbXrecord
280
     1
290
     1
  0
XRECORD
  5
467
102
{ACAD_REACTORS
330
466
102
}
330
466
100
AcDbXrecord
280
     1
290
     1
  0
XRECORD
  5
469
102
{ACAD_REACTORS
330
468
102
}
330
468
100
AcDbXrecord
280
     1
290
     1
  0
XRECORD
  5
46B
102
{ACAD_REACTORS
330
46A
102
}
330
46A
100
AcDbXrecord
280
     1
290
     1
  0
ACDBDETAILVIEWSTYLE
  5
444
102
{ACAD_XDICTIONARY
360
4B2
102
}
102
{ACAD_REACTORS
330
443
102
}
330
443
100
AcDbModelDocViewStyle
 70
     0
  3
Imperial24
290
     0
100
AcDbDetailViewStyle
 70
     0
 71
     0
 90
        3
 71
     1
340
42F
 40
0.24
340
0
 40
0.24
300

 40
0.36
280
     3
 71
     2
340
436
 90
       25
 71
     3
340
42F
 40
0.24
 90
        1
 40
0.75
 90
        1
300
%<\AcVar ViewType \f "%tc1">% %<\AcVar ViewDetailId>%\PSCALE %<\AcVar ViewScale \f "%sn">%
 71
     4
340
436
 90
       25
340
436
 90
       25
280
     0
  0
LAYOUT
  5
44C
102
{ACAD_XDICTIONARY
360
4B6
102
}
102
{ACAD_REACTORS
330
43B
102
}
330
43B
100
AcDbPlotSettings
  1

  2
DocuPrint 3000-2
  4

  6

 40
0.0
 41
0.0
 42
0.0
 43
0.0
 44
0.0
 45
0.0
 46
0.0
 47
0.0
 48
0.0
 49
0.0
140
0.0
141
0.0
142
1.0
143
1.0
 70
  1712
 72
     0
 73
     0
 74
     0
  7

 75
     0
147
1.0
148
0.0
149
0.0
100
AcDbLayout
  1
Model
 70
     1
 71
     0
 10
0.0
 20
0.0
 11
12.0
 21
9.0
 12
0.0
 22
0.0
 32
0.0
 14
0.0
 24
0.0
 34
0.0
 15
0.0
 25
0.0
 35
0.0
146
0.0
 13
0.0
 23
0.0
 33
0.0
 16
1.0
 26
0.0
 36
0.0
 17
0.0
 27
1.0
 37
0.0
 76
     0
330
449
331
44E
  0
LAYOUT
  5
448
102
{ACAD_XDICTIONARY
360
4B4
102
}
102
{ACAD_REACTORS
330
43B
102
}
330
43B
100
AcDbPlotSettings
  1

  2
DocuPrint 3000-2
  4

  6

 40
0.0
 41
0.0
 42
0.0
 43
0.0
 44
0.0
 45
0.0
 46
0.0
 47
0.0
 48
0.0
 49
0.0
140
0.0
141
0.0
142
1.0
143
1.0
 70
   688
 72
     0
 73
     0
 74
     5
  7

 75
    16
147
1.0
148
0.0
149
0.0
100
AcDbLayout
  1
レイアウト1
 70
     0
 71
     1
 10
0.0
 20
0.0
 11
12.0
 21
9.0
 12
0.0
 22
0.0
 32
0.0
 14
1.000000000000000E+20
 24
1.000000000000000E+20
 34
1.000000000000000E+20
 15
-1.000000000000000E+20
 25
-1.000000000000000E+20
 35
-1.000000000000000E+20
146
0.0
 13
0.0
 23
0.0
 33
0.0
 16
1.0
 26
0.0
 36
0.0
 17
0.0
 27
1.0
 37
0.0
 76
     0
330
445
  0
MATERIAL
  5
3F3
102
{ACAD_XDICTIONARY
360
3F4
102
}
102
{ACAD_REACTORS
330
3EA
102
}
330
3EA
100
AcDbMaterial
  1
ByBlock
 72
     0
 43
0.0208333333333333
 43
0.0
 43
0.0
 43
0.0
 43
0.0
 43
0.0208333333333333
 43
0.0
 43
0.0
 43
0.0
 43
0.0
 43
1.0
 43
0.0
 43
0.0
 43
0.0
 43
0.0
 43
1.0
 77
     0
 47
0.0208333333333333
 47
0.0
 47
0.0
 47
0.0
 47
0.0
 47
0.0208333333333333
 47
0.0
 47
0.0
 47
0.0
 47
0.0
 47
1.0
 47
0.0
 47
0.0
 47
0.0
 47
0.0
 47
1.0
171
     0
 49
0.0208333333333333
 49
0.0
 49
0.0
 49
0.0
 49
0.0
 49
0.0208333333333333
 49
0.0
 49
0.0
 49
0.0
 49
0.0
 49
1.0
 49
0.0
 49
0.0
 49
0.0
 49
0.0
 49
1.0
175
     0
142
0.0208333333333333
142
0.0
142
0.0
142
0.0
142
0.0
142
0.0208333333333333
142
0.0
142
0.0
142
0.0
142
0.0
142
1.0
142
0.0
142
0.0
142
0.0
142
0.0
142
1.0
179
     0
144
0.0208333333333333
144
0.0
144
0.0
144
0.0
144
0.0
144
0.0208333333333333
144
0.0
144
0.0
144
0.0
144
0.0
144
1.0
144
0.0
144
0.0
144
0.0
144
0.0
144
1.0
147
0.0208333333333333
147
0.0
147
0.0
147
0.0
147
0.0
147
0.0208333333333333
147
0.0
147
0.0
147
0.0
147
0.0
147
1.0
147
0.0
147
0.0
147
0.0
147
0.0
147
1.0
  0
MATERIAL
  5
3EB
102
{ACAD_XDICTIONARY
360
3EC
102
}
102
{ACAD_REACTORS
330
3EA
102
}
330
3EA
100
AcDbMaterial
  1
ByLayer
 72
     0
 43
0.0208333333333333
 43
0.0
 43
0.0
 43
0.0
 43
0.0
 43
0.0208333333333333
 43
0.0
 43
0.0
 43
0.0
 43
0.0
 43
1.0
 43
0.0
 43
0.0
 43
0.0
 43
0.0
 43
1.0
 77
     0
 47
0.0208333333333333
 47
0.0
 47
0.0
 47
0.0
 47
0.0
 47
0.0208333333333333
 47
0.0
 47
0.0
 47
0.0
 47
0.0
 47
1.0
 47
0.0
 47
0.0
 47
0.0
 47
0.0
 47
1.0
171
     0
 49
0.0208333333333333
 49
0.0
 49
0.0
 49
0.0
 49
0.0
 49
0.0208333333333333
 49
0.0
 49
0.0
 49
0.0
 49
0.0
 49
1.0
 49
0.0
 49
0.0
 49
0.0
 49
0.0
 49
1.0
175
     0
142
0.0208333333333333
142
0.0
142
0.0
142
0.0
142
0.0
142
0.0208333333333333
142
0.0
142
0.0
142
0.0
142
0.0
142
1.0
142
0.0
142
0.0
142
0.0
142
0.0
142
1.0
179
     0
144
0.0208333333333333
144
0.0
144
0.0
144
0.0
144
0.0
144
0.0208333333333333
144
0.0
144
0.0
144
0.0
144
0.0
144
1.0
144
0.0
144
0.0
144
0.0
144
0.0
144
1.0
147
0.0208333333333333
147
0.0
147
0.0
147
0.0
147
0.0
147
0.0208333333333333
147
0.0
147
0.0
147
0.0
147
0.0
147
1.0
147
0.0
147
0.0
147
0.0
147
0.0
147
1.0
  0
MATERIAL
  5
3FB
102
{ACAD_XDICTIONARY
360
3FC
102
}
102
{ACAD_REACTORS
330
3EA
102
}
330
3EA
100
AcDbMaterial
  1
Global
 72
     0
 43
0.0208333333333333
 43
0.0
 43
0.0
 43
0.0
 43
0.0
 43
0.0208333333333333
 43
0.0
 43
0.0
 43
0.0
 43
0.0
 43
1.0
 43
0.0
 43
0.0
 43
0.0
 43
0.0
 43
1.0
 77
     0
 47
0.0208333333333333
 47
0.0
 47
0.0
 47
0.0
 47
0.0
 47
0.0208333333333333
 47
0.0
 47
0.0
 47
0.0
 47
0.0
 47
1.0
 47
0.0
 47
0.0
 47
0.0
 47
0.0
 47
1.0
171
     0
 49
0.0208333333333333
 49
0.0
 49
0.0
 49
0.0
 49
0.0
 49
0.0208333333333333
 49
0.0
 49
0.0
 49
0.0
 49
0.0
 49
1.0
 49
0.0
 49
0.0
 49
0.0
 49
0.0
 49
1.0
175
     0
142
0.0208333333333333
142
0.0
142
0.0
142
0.0
142
0.0
142
0.0208333333333333
142
0.0
142
0.0
142
0.0
142
0.0
142
1.0
142
0.0
142
0.0
142
0.0
142
0.0
142
1.0
179
     0
144
0.0208333333333333
144
0.0
144
0.0
144
0.0
144
0.0
144
0.0208333333333333
144
0.0
144
0.0
144
0.0
144
0.0
144
1.0
144
0.0
144
0.0
144
0.0
144
0.0
144
1.0
147
0.0208333333333333
147
0.0
147
0.0
147
0.0
147
0.0
147
0.0208333333333333
147
0.0
147
0.0
147
0.0
147
0.0
147
1.0
147
0.0
147
0.0
147
0.0
147
0.0
147
1.0
  0
MLEADERSTYLE
  5
440
102
{ACAD_REACTORS
330
43F
102
}
330
43F
100
AcDbMLeaderStyle
170
     2
171
     1
172
     0
 90
        2
 40
0.0
 41
0.0
173
     1
 91
-1056964608
340
434
 92
       -2
290
     1
 42
0.09
291
     1
 43
0.36
  3
Standard
 44
0.18
300

342
42F
174
     1
178
     6
175
     1
176
     0
 93
-1056964608
 45
0.18
292
     0
297
     0
 46
0.18
 94
-1056964608
 47
1.0
 49
1.0
140
1.0
293
     1
141
0.0
294
     1
177
     0
142
1.0
295
     0
296
     0
143
0.125
1001
ACAD_MLEADERVER
1070
     2
  0
MLINESTYLE
  5
439
102
{ACAD_REACTORS
330
438
102
}
330
438
100
AcDbMlineStyle
  2
STANDARD
 70
     0
  3

 62
   256
 51
90.0
 52
90.0
 71
     2
 49
0.5
 62
   256
  6
BYLAYER
 49
-0.5
 62
   256
  6
BYLAYER
  0
ACDBPLACEHOLDER
  5
3E9
102
{ACAD_REACTORS
330
3E8
102
}
330
3E8
  0
SCALE
  5
41D
102
{ACAD_REACTORS
330
41C
102
}
330
41C
100
AcDbScale
 70
     0
300
1:1
140
1.0
141
1.0
290
     1
  0
SCALE
  5
41E
102
{ACAD_REACTORS
330
41C
102
}
330
41C
100
AcDbScale
 70
     0
300
1/128" = 1'-0"
140
0.0078125
141
12.0
290
     0
  0
SCALE
  5
41F
102
{ACAD_REACTORS
330
41C
102
}
330
41C
100
AcDbScale
 70
     0
300
1/64" = 1'-0"
140
0.015625
141
12.0
290
     0
  0
SCALE
  5
420
102
{ACAD_REACTORS
330
41C
102
}
330
41C
100
AcDbScale
 70
     0
300
1/32" = 1'-0"
140
0.03125
141
12.0
290
     0
  0
SCALE
  5
421
102
{ACAD_REACTORS
330
41C
102
}
330
41C
100
AcDbScale
 70
     0
300
1/16" = 1'-0"
140
0.0625
141
12.0
290
     0
  0
SCALE
  5
422
102
{ACAD_REACTORS
330
41C
102
}
330
41C
100
AcDbScale
 70
     0
300
3/32" = 1'-0"
140
0.09375
141
12.0
290
     0
  0
SCALE
  5
423
102
{ACAD_REACTORS
330
41C
102
}
330
41C
100
AcDbScale
 70
     0
300
1/8" = 1'-0"
140
0.125
141
12.0
290
     0
  0
SCALE
  5
424
102
{ACAD_REACTORS
330
41C
102
}
330
41C
100
AcDbScale
 70
     0
300
3/16" = 1'-0"
140
0.1875
141
12.0
290
     0
  0
SCALE
  5
425
102
{ACAD_REACTORS
330
41C
102
}
330
41C
100
AcDbScale
 70
     0
300
1/4" = 1'-0"
140
0.25
141
12.0
290
     0
  0
SCALE
  5
426
102
{ACAD_REACTORS
330
41C
102
}
330
41C
100
AcDbScale
 70
     0
300
3/8" = 1'-0"
140
0.375
141
12.0
290
     0
  0
SCALE
  5
427
102
{ACAD_REACTORS
330
41C
102
}
330
41C
100
AcDbScale
 70
     0
300
1/2" = 1'-0"
140
0.5
141
12.0
290
     0
  0
SCALE
  5
428
102
{ACAD_REACTORS
330
41C
102
}
330
41C
100
AcDbScale
 70
     0
300
3/4" = 1'-0"
140
0.75
141
12.0
290
     0
  0
SCALE
  5
429
102
{ACAD_REACTORS
330
41C
102
}
330
41C
100
AcDbScale
 70
     0
300
1" = 1'-0"
140
1.0
141
12.0
290
     0
  0
SCALE
  5
42A
102
{ACAD_REACTORS
330
41C
102
}
330
41C
100
AcDbScale
 70
     0
300
1-1/2" = 1'-0"
140
1.5
141
12.0
290
     0
  0
SCALE
  5
42B
102
{ACAD_REACTORS
330
41C
102
}
330
41C
100
AcDbScale
 70
     0
300
3" = 1'-0"
140
3.0
141
12.0
290
     0
  0
SCALE
  5
42C
102
{ACAD_REACTORS
330
41C
102
}
330
41C
100
AcDbScale
 70
     0
300
6" = 1'-0"
140
6.0
141
12.0
290
     0
  0
SCALE
  5
42D
102
{ACAD_REACTORS
330
41C
102
}
330
41C
100
AcDbScale
 70
     0
300
1'-0" = 1'-0"
140
12.0
141
12.0
290
     0
  0
ACDBSECTIONVIEWSTYLE
  5
442
102
{ACAD_XDICTIONARY
360
4B0
102
}
102
{ACAD_REACTORS
330
441
102
}
330
441
100
AcDbModelDocViewStyle
 70
     0
  3
Imperial24
290
     0
100
AcDbSectionViewStyle
 70
     0
 71
     0
 90
       78
 71
     1
340
42F
 40
0.24
340
0
340
0
 40
0.24
300
I, O, Q, S, X, Z
 40
0.48
 90
        3
 40
0.18
 90
        1
 71
     2
340
436
 90
       25
340
436
 90
       50
 40
0.24
 40
0.0
 40
0.24
 71
     3
340
42F
 40
0.24
 90
        1
 40
0.75
 90
        1
300
%<\AcVar ViewType \f "%tc1">% %<\AcVar ViewSectionStartId>%-%<\AcVar ViewSectionEndId>%\PSCALE %<\AcVar ViewScale \f "%sn">%
 71
     4
300
ANSI31
 40
1.0
 90
        0
290
     0
290
     0
 90
        6
 40
0.0
 40
1.570796326794896
 40
0.2617993877991494
 40
1.308996938995747
 40
-0.2617993877991494
 40
1.832595714594046
  0
TABLESTYLE
  5
43E
102
{ACAD_XDICTIONARY
360
477
102
}
102
{ACAD_REACTORS
330
43D
102
}
330
43D
100
AcDbTableStyle
  3
Standard
 70
     0
 71
     0
 40
0.06
 41
0.06
280
     0
281
     0
  7
STANDARD
140
0.18
170
     2
 62
     0
 63
     7
283
     0
274
    -2
284
     1
 64
     0
275
    -2
285
     1
 65
     0
276
    -2
286
     1
 66
     0
277
    -2
287
     1
 67
     0
278
    -2
288
     1
 68
     0
279
    -2
289
     1
 69
     0
  7
STANDARD
140
0.25
170
     5
 62
     0
 63
     7
283
     0
274
    -2
284
     1
 64
     0
275
    -2
285
     1
 65
     0
276
    -2
286
     1
 66
     0
277
    -2
287
     1
 67
     0
278
    -2
288
     1
 68
     0
279
    -2
289
     1
 69
     0
  7
STANDARD
140
0.18
170
     5
 62
     0
 63
     7
283
     0
274
    -2
284
     1
 64
     0
275
    -2
285
     1
 65
     0
276
    -2
286
     1
 66
     0
277
    -2
287
     1
 67
     0
278
    -2
288
     1
 68
     0
279
    -2
289
     1
 69
     0
  0
VISUALSTYLE
  5
409
102
{ACAD_XDICTIONARY
360
488
102
}
102
{ACAD_REACTORS
330
403
102
}
330
403
100
AcDbVisualStyle
  2
2dWireframe
 70
     4
 71
     0
 72
     2
 73
     0
 90
        0
 40
-0.6
 41
-30.0
 62
     5
 63
     7
 74
     1
 91
        4
 64
     7
 65
   257
 75
     1
175
     1
 42
1.0
 92
        0
 66
   257
 43
1.0
 76
     1
 77
     6
 78
     2
 67
     7
 79
     5
170
     0
171
     0
290
     0
174
     0
 93
        1
 44
0.0
173
     0
291
     0
 45
0.0
1001
ACAD
1000
AcDbSavedByObjectVersion
1070
     0
  0
VISUALSTYLE
  5
408
102
{ACAD_XDICTIONARY
360
486
102
}
102
{ACAD_REACTORS
330
403
102
}
330
403
100
AcDbVisualStyle
  2
Basic
 70
     7
 71
     1
 72
     0
 73
     1
 90
        0
 40
-0.6
 41
-30.0
 62
     5
 63
     7
 74
     0
 91
        4
 64
     7
 65
   257
 75
     1
175
     1
 42
1.0
 92
        8
 66
     7
 43
1.0
 76
     1
 77
     6
 78
     2
 67
     7
 79
     5
170
     0
171
     0
290
     0
174
     0
 93
        1
 44
0.0
173
     0
291
     1
 45
0.0
1001
ACAD
1000
AcDbSavedByObjectVersion
1070
     0
  0
VISUALSTYLE
  5
40F
102
{ACAD_XDICTIONARY
360
494
102
}
102
{ACAD_REACTORS
330
403
102
}
330
403
100
AcDbVisualStyle
  2
Brighten
 70
    12
 71
     2
 72
     2
 73
     0
 90
        0
 40
-0.6
 41
-30.0
 62
     5
 63
     7
 74
     1
 91
        4
 64
     7
 65
   257
 75
     1
175
     1
 42
1.0
 92
        8
 66
     7
 43
1.0
 76
     1
 77
     6
 78
     2
 67
     7
 79
     5
170
     0
171
     0
290
     0
174
     0
 93
        1
 44
50.0
173
     0
291
     1
 45
0.0
1001
ACAD
1000
AcDbSavedByObjectVersion
1070
     0
  0
VISUALSTYLE
  5
413
102
{ACAD_XDICTIONARY
360
49C
102
}
102
{ACAD_REACTORS
330
403
102
}
330
403
100
AcDbVisualStyle
  2
ColorChange
 70
    16
 71
     2
 72
     2
 73
     3
 90
        0
 40
-0.6
 41
-30.0
 62
     5
 63
     8
 74
     1
 91
        4
 64
     7
 65
   257
 75
     1
175
     1
 42
1.0
 92
        8
 66
     8
 43
1.0
 76
     1
 77
     6
 78
     2
 67
     7
 79
     5
170
     0
171
     0
290
     0
174
     0
 93
        1
 44
0.0
173
     0
291
     1
 45
0.0
1001
ACAD
1000
AcDbSavedByObjectVersion
1070
     0
  0
VISUALSTYLE
  5
40C
102
{ACAD_XDICTIONARY
360
48E
102
}
102
{ACAD_REACTORS
330
403
102
}
330
403
100
AcDbVisualStyle
  2
Conceptual
 70
     9
 71
     3
 72
     2
 73
     0
 90
        0
 40
-0.6
 41
-30.0
 62
     5
 63
     7
 74
     2
 91
        2
 64
     7
 65
   257
 75
     1
175
     1
 42
179.0
 92
        8
 66
     7
 43
1.0
 76
     1
 77
     6
 78
     2
 67
     7
 79
     3
170
     0
171
     0
290
     0
174
     0
 93
        1
 44
0.0
173
     0
291
     0
 45
0.0
1001
ACAD
1000
AcDbSavedByObjectVersion
1070
     0
  0
VISUALSTYLE
  5
40E
102
{ACAD_XDICTIONARY
360
492
102
}
102
{ACAD_REACTORS
330
403
102
}
330
403
100
AcDbVisualStyle
  2
Dim
 70
    11
 71
     2
 72
     2
 73
     0
 90
        0
 40
-0.6
 41
-30.0
 62
     5
 63
     7
 74
     1
 91
        4
 64
     7
 65
   257
 75
     1
175
     1
 42
1.0
 92
        8
 66
     7
 43
1.0
 76
     1
 77
     6
 78
     2
 67
     7
 79
     5
170
     0
171
     0
290
     0
174
     0
 93
        1
 44
-50.0
173
     0
291
     1
 45
0.0
1001
ACAD
1000
AcDbSavedByObjectVersion
1070
     0
  0
VISUALSTYLE
  5
41B
102
{ACAD_XDICTIONARY
360
4AC
102
}
102
{ACAD_REACTORS
330
403
102
}
330
403
100
AcDbVisualStyle
  2
EdgeColorOff
 70
    22
 71
     2
 72
     2
 73
     0
 90
        0
 40
-0.6
 41
-30.0
 62
     5
 63
     7
 74
     1
 91
        4
 64
     7
 65
   257
 75
     1
175
     1
 42
1.0
 92
        8
 66
     7
 43
1.0
 76
     1
 77
     6
 78
     2
 67
     7
 79
     5
170
     0
171
     0
290
     0
174
     0
 93
        1
 44
0.0
173
     0
291
     1
 45
0.0
1001
ACAD
1000
AcDbSavedByObjectVersion
1070
     0
  0
VISUALSTYLE
  5
412
102
{ACAD_XDICTIONARY
360
49A
102
}
102
{ACAD_REACTORS
330
403
102
}
330
403
100
AcDbVisualStyle
  2
Facepattern
 70
    15
 71
     2
 72
     2
 73
     0
 90
        0
 40
-0.6
 41
-30.0
 62
     5
 63
     7
 74
     1
 91
        4
 64
     7
 65
   257
 75
     1
175
     1
 42
1.0
 92
        8
 66
     7
 43
1.0
 76
     1
 77
     6
 78
     2
 67
     7
 79
     5
170
     0
171
     0
290
     0
174
     0
 93
        1
 44
0.0
173
     0
291
     1
 45
0.0
1001
ACAD
1000
AcDbSavedByObjectVersion
1070
     0
  0
VISUALSTYLE
  5
404
102
{ACAD_XDICTIONARY
360
47E
102
}
102
{ACAD_REACTORS
330
403
102
}
330
403
100
AcDbVisualStyle
  2
Flat
 70
     0
 71
     2
 72
     1
 73
     1
 90
        2
 40
-0.6
 41
30.0
 62
     5
 63
     7
 74
     0
 91
        0
 64
     7
 65
   257
 75
     1
175
     1
 42
1.0
 92
        8
 66
     7
 43
1.0
 76
     1
 77
     6
 78
     2
 67
     7
 79
     5
170
     0
171
     0
290
     0
174
     0
 93
       13
 44
0.0
173
     0
291
     1
 45
0.0
1001
ACAD
1000
AcDbSavedByObjectVersion
1070
     0
  0
VISUALSTYLE
  5
405
102
{ACAD_XDICTIONARY
360
480
102
}
102
{ACAD_REACTORS
330
403
102
}
330
403
100
AcDbVisualStyle
  2
FlatWithEdges
 70
     1
 71
     2
 72
     1
 73
     1
 90
        2
 40
-0.6
 41
30.0
 62
     5
 63
     7
 74
     1
 91
        0
 64
     7
 65
   257
 75
     1
175
     1
 42
1.0
 92
        0
 66
   257
 43
1.0
 76
     1
 77
     6
 78
     2
 67
     7
 79
     5
170
     0
171
     0
290
     0
174
     0
 93
       13
 44
0.0
173
     0
291
     1
 45
0.0
1001
ACAD
1000
AcDbSavedByObjectVersion
1070
     0
  0
VISUALSTYLE
  5
406
102
{ACAD_XDICTIONARY
360
482
102
}
102
{ACAD_REACTORS
330
403
102
}
330
403
100
AcDbVisualStyle
  2
Gouraud
 70
     2
 71
     2
 72
     2
 73
     1
 90
        2
 40
-0.6
 41
30.0
 62
     5
 63
     7
 74
     0
 91
        0
 64
     7
 65
   257
 75
     1
175
     1
 42
1.0
 92
        0
 66
     7
 43
1.0
 76
     1
 77
     6
 78
     2
 67
     7
 79
     5
170
     0
171
     0
290
     0
174
     0
 93
       13
 44
0.0
173
     0
291
     1
 45
0.0
1001
ACAD
1000
AcDbSavedByObjectVersion
1070
     0
  0
VISUALSTYLE
  5
407
102
{ACAD_XDICTIONARY
360
484
102
}
102
{ACAD_REACTORS
330
403
102
}
330
403
100
AcDbVisualStyle
  2
GouraudWithEdges
 70
     3
 71
     2
 72
     2
 73
     1
 90
        2
 40
-0.6
 41
30.0
 62
     5
 63
     7
 74
     1
 91
        0
 64
     7
 65
   257
 75
     1
175
     1
 42
1.0
 92
        0
 66
   257
 43
1.0
 76
     1
 77
     6
 78
     2
 67
     7
 79
     5
170
     0
171
     0
290
     0
174
     0
 93
       13
 44
0.0
173
     0
291
     1
 45
0.0
1001
ACAD
1000
AcDbSavedByObjectVersion
1070
     0
  0
VISUALSTYLE
  5
40B
102
{ACAD_XDICTIONARY
360
48C
102
}
102
{ACAD_REACTORS
330
403
102
}
330
403
100
AcDbVisualStyle
  2
Hidden
 70
     6
 71
     1
 72
     2
 73
     2
 90
        0
 40
-0.6
 41
-30.0
 62
     5
 63
     7
 74
     2
 91
        2
 64
     7
 65
   257
 75
     2
175
     1
 42
40.0
 92
        0
 66
   257
 43
1.0
 76
     1
 77
     6
 78
     2
 67
     7
 79
     3
170
     0
171
     0
290
     0
174
     0
 93
        1
 44
0.0
173
     0
291
     0
 45
0.0
1001
ACAD
1000
AcDbSavedByObjectVersion
1070
     0
  0
VISUALSTYLE
  5
419
102
{ACAD_XDICTIONARY
360
4A8
102
}
102
{ACAD_REACTORS
330
403
102
}
330
403
100
AcDbVisualStyle
  2
JitterOff
 70
    20
 71
     2
 72
     2
 73
     0
 90
        0
 40
-0.6
 41
-30.0
 62
     5
 63
     7
 74
     1
 91
        4
 64
     7
 65
   257
 75
     1
175
     1
 42
1.0
 92
       10
 66
     7
 43
1.0
 76
     1
 77
     6
 78
     2
 67
     7
 79
     5
170
     0
171
     0
290
     0
174
     0
 93
        1
 44
0.0
173
     0
291
     1
 45
0.0
1001
ACAD
1000
AcDbSavedByObjectVersion
1070
     0
  0
VISUALSTYLE
  5
411
102
{ACAD_XDICTIONARY
360
498
102
}
102
{ACAD_REACTORS
330
403
102
}
330
403
100
AcDbVisualStyle
  2
Linepattern
 70
    14
 71
     2
 72
     2
 73
     0
 90
        0
 40
-0.6
 41
-30.0
 62
     5
 63
     7
 74
     1
 91
        4
 64
     7
 65
   257
 75
     7
175
     7
 42
1.0
 92
        8
 66
     7
 43
1.0
 76
     1
 77
     6
 78
     2
 67
     7
 79
     5
170
     0
171
     0
290
     0
174
     0
 93
        1
 44
0.0
173
     0
291
     1
 45
0.0
1001
ACAD
1000
AcDbSavedByObjectVersion
1070
     0
  0
VISUALSTYLE
  5
41A
102
{ACAD_XDICTIONARY
360
4AA
102
}
102
{ACAD_REACTORS
330
403
102
}
330
403
100
AcDbVisualStyle
  2
OverhangOff
 70
    21
 71
     2
 72
     2
 73
     0
 90
        0
 40
-0.6
 41
-30.0
 62
     5
 63
     7
 74
     1
 91
        4
 64
     7
 65
   257
 75
     1
175
     1
 42
1.0
 92
        9
 66
     7
 43
1.0
 76
     1
 77
     6
 78
     2
 67
     7
 79
     5
170
     0
171
     0
290
     0
174
     0
 93
        1
 44
0.0
173
     0
291
     1
 45
0.0
1001
ACAD
1000
AcDbSavedByObjectVersion
1070
     0
  0
VISUALSTYLE
  5
40D
102
{ACAD_XDICTIONARY
360
490
102
}
102
{ACAD_REACTORS
330
403
102
}
330
403
100
AcDbVisualStyle
  2
Realistic
 70
     8
 71
     2
 72
     3
 73
     0
 90
        2
 40
-0.6
 41
30.0
 62
     5
 63
     7
 74
     0
 91
        0
 64
     7
 65
   257
 75
     1
175
     1
 42
1.0
 92
        8
 66
   257
 43
1.0
 76
     1
 77
     6
 78
     2
 67
     7
 79
     3
170
     0
171
     0
290
     0
174
     0
 93
       13
 44
0.0
173
     0
291
     0
 45
0.0
1001
ACAD
1000
AcDbSavedByObjectVersion
1070
     0
  0
VISUALSTYLE
  5
418
102
{ACAD_XDICTIONARY
360
4A6
102
}
102
{ACAD_REACTORS
330
403
102
}
330
403
100
AcDbVisualStyle
  2
Shaded
 70
    27
 71
     2
 72
     2
 73
     1
 90
        2
 40
-0.6
 41
30.0
 62
     5
 63
     7
 74
     0
 91
        4
 64
     7
 65
   257
 75
     1
175
     1
 42
1.0
 92
        8
 66
   257
 43
1.0
 76
     1
 77
     6
 78
     2
 67
     8
 79
     3
170
     0
171
     0
290
     0
174
     0
 93
        5
 44
0.0
173
     0
291
     0
 45
0.0
1001
ACAD
1000
AcDbSavedByObjectVersion
1070
     0
  0
VISUALSTYLE
  5
417
102
{ACAD_XDICTIONARY
360
4A4
102
}
102
{ACAD_REACTORS
330
403
102
}
330
403
100
AcDbVisualStyle
  2
Shaded with edges
 70
    26
 71
     2
 72
     2
 73
     1
 90
        2
 40
-0.6
 41
30.0
 62
     5
 63
     7
 74
     1
 91
        2
 64
     7
 65
   257
 75
     2
175
     1
 42
1.0
 92
        8
 66
   257
 43
1.0
 76
     1
 77
     6
 78
     2
 67
     7
 79
     3
170
     0
171
     0
290
     0
174
     0
 93
        5
 44
0.0
173
     0
291
     0
 45
0.0
1001
ACAD
1000
AcDbSavedByObjectVersion
1070
     0
  0
VISUALSTYLE
  5
414
102
{ACAD_XDICTIONARY
360
49E
102
}
102
{ACAD_REACTORS
330
403
102
}
330
403
100
AcDbVisualStyle
  2
Shades of Gray
 70
    23
 71
     2
 72
     2
 73
     3
 90
        0
 40
-0.6
 41
-30.0
 62
     5
 63
     7
 74
     2
 91
        2
 64
     7
 65
     7
 75
     1
175
     1
 42
40.0
 92
        8
 66
     7
 43
1.0
 76
     1
 77
     6
 78
     2
 67
     7
 79
     3
170
     0
171
     0
290
     0
174
     0
 93
        1
 44
0.0
173
     0
291
     0
 45
0.0
1001
ACAD
1000
AcDbSavedByObjectVersion
1070
     0
  0
VISUALSTYLE
  5
415
102
{ACAD_XDICTIONARY
360
4A0
102
}
102
{ACAD_REACTORS
330
403
102
}
330
403
100
AcDbVisualStyle
  2
Sketchy
 70
    24
 71
     1
 72
     2
 73
     2
 90
        0
 40
-0.6
 41
-30.0
 62
     5
 63
     7
 74
     2
 91
        2
 64
     7
 65
     7
 75
     1
175
     1
 42
40.0
 92
       11
 66
     7
 43
1.0
 76
     1
 77
     6
 78
     2
 67
     7
 79
     6
170
     0
171
     0
290
     0
174
     0
 93
        1
 44
0.0
173
     0
291
     0
 45
0.0
1001
ACAD
1000
AcDbSavedByObjectVersion
1070
     0
  0
VISUALSTYLE
  5
410
102
{ACAD_XDICTIONARY
360
496
102
}
102
{ACAD_REACTORS
330
403
102
}
330
403
100
AcDbVisualStyle
  2
Thicken
 70
    13
 71
     2
 72
     2
 73
     0
 90
        0
 40
-0.6
 41
-30.0
 62
     5
 63
     7
 74
     1
 91
        4
 64
     7
 65
   257
 75
     1
175
     1
 42
1.0
 92
       12
 66
     7
 43
1.0
 76
     1
 77
     6
 78
     2
 67
     7
 79
     5
170
     0
171
     0
290
     0
174
     0
 93
        1
 44
0.0
173
     0
291
     1
 45
0.0
1001
ACAD
1000
AcDbSavedByObjectVersion
1070
     0
  0
VISUALSTYLE
  5
40A
102
{ACAD_XDICTIONARY
360
48A
102
}
102
{ACAD_REACTORS
330
403
102
}
330
403
100
AcDbVisualStyle
  2
Wireframe
 70
     5
 71
     0
 72
     2
 73
     0
 90
        0
 40
-0.6
 41
-30.0
 62
     5
 63
     7
 74
     1
 91
        4
 64
     7
 65
   257
 75
     1
175
     1
 42
1.0
 92
        0
 66
   257
 43
1.0
 76
     1
 77
     6
 78
     2
 67
     7
 79
     3
170
     0
171
     0
290
     0
174
     0
 93
        1
 44
0.0
173
     0
291
     0
 45
0.0
1001
ACAD
1000
AcDbSavedByObjectVersion
1070
     0
  0
VISUALSTYLE
  5
416
102
{ACAD_XDICTIONARY
360
4A2
102
}
102
{ACAD_REACTORS
330
403
102
}
330
403
100
AcDbVisualStyle
  2
X-Ray
 70
    25
 71
     2
 72
     2
 73
     1
 90
        1
 40
0.5
 41
-30.0
 62
     5
 63
     7
 74
     1
 91
        0
 64
     7
 65
   257
 75
     1
175
     1
 42
1.0
 92
        8
 66
     7
 43
1.0
 76
     1
 77
     6
 78
     2
 67
     7
 79
     3
170
     0
171
     0
290
     0
174
     0
 93
       13
 44
0.0
173
     0
291
     0
 45
0.0
1001
ACAD
1000
AcDbSavedByObjectVersion
1070
     0
  0
DICTIONARYVAR
  5
471
102
{ACAD_REACTORS
330
46C
102
}
330
46C
100
DictionaryVariables
280
     0
  1
1:1
  0
DICTIONARYVAR
  5
46E
102
{ACAD_REACTORS
330
46C
102
}
330
46C
100
DictionaryVariables
280
     0
  1
STANDARD
  0
DICTIONARYVAR
  5
46D
102
{ACAD_REACTORS
330
46C
102
}
330
46C
100
DictionaryVariables
280
     0
  1
STANDARD
  0
DICTIONARYVAR
  5
46F
102
{ACAD_REACTORS
330
46C
102
}
330
46C
100
DictionaryVariables
280
     0
  1
Imperial24
  0
DICTIONARYVAR
  5
470
102
{ACAD_REACTORS
330
46C
102
}
330
46C
100
DictionaryVariables
280
     0
  1
Imperial24
  0
DICTIONARYVAR
  5
474
102
{ACAD_REACTORS
330
46C
102
}
330
46C
100
DictionaryVariables
280
     0
  1
1
  0
DICTIONARYVAR
  5
473
102
{ACAD_REACTORS
330
46C
102
}
330
46C
100
DictionaryVariables
280
     0
  1
0
  0
DICTIONARYVAR
  5
472
102
{ACAD_REACTORS
330
46C
102
}
330
46C
100
DictionaryVariables
280
     0
  1
127
  0
DICTIONARYVAR
  5
475
102
{ACAD_REACTORS
330
46C
102
}
330
46C
100
DictionaryVariables
280
     0
  1
2
  0
DICTIONARY
  5
4B2
330
444
100
AcDbDictionary
280
     1
281
     1
  3
ACAD_XREC_ROUNDTRIP
360
4B3
  0
DICTIONARY
  5
4B6
330
44C
100
AcDbDictionary
280
     1
281
     1
  3
ACAD_XREC_ROUNDTRIP
360
4B7
  0
DICTIONARY
  5
4B4
330
448
100
AcDbDictionary
280
     1
281
     1
  3
ACAD_XREC_ROUNDTRIP
360
4B5
  0
DICTIONARY
  5
3F4
330
3F3
100
AcDbDictionary
280
     1
281
     1
  3
ACAD_XREC_ROUNDTRIP
360
47C
  3
BUMPTILE
360
3F6
  3
DIFFUSETILE
360
3F5
  3
OPACITYTILE
360
3F9
  3
REFLECTIONTILE
360
3F8
  3
REFRACTIONTILE
360
3FA
  3
SPECULARTILE
360
3F7
  0
DICTIONARY
  5
3EC
330
3EB
100
AcDbDictionary
280
     1
281
     1
  3
ACAD_XREC_ROUNDTRIP
360
47B
  3
BUMPTILE
360
3EE
  3
DIFFUSETILE
360
3ED
  3
OPACITYTILE
360
3F1
  3
REFLECTIONTILE
360
3F0
  3
REFRACTIONTILE
360
3F2
  3
SPECULARTILE
360
3EF
  0
DICTIONARY
  5
3FC
330
3FB
100
AcDbDictionary
280
     1
281
     1
  3
ACAD_XREC_ROUNDTRIP
360
47D
  3
BUMPTILE
360
3FE
  3
DIFFUSETILE
360
3FD
  3
OPACITYTILE
360
401
  3
REFLECTIONTILE
360
400
  3
REFRACTIONTILE
360
402
  3
SPECULARTILE
360
3FF
  0
DICTIONARY
  5
4B0
330
442
100
AcDbDictionary
280
     1
281
     1
  3
ACAD_XREC_ROUNDTRIP
360
4B1
  0
DICTIONARY
  5
477
330
43E
100
AcDbDictionary
280
     1
281
     1
  3
ACAD_ROUNDTRIP_2008_TABLESTYLE_CELLSTYLEMAP
360
478
  3
ACAD_XREC_ROUNDTRIP
360
4AE
  0
DICTIONARY
  5
488
330
409
100
AcDbDictionary
280
     1
281
     1
  3
ACAD_XREC_ROUNDTRIP
360
489
  0
DICTIONARY
  5
486
330
408
100
AcDbDictionary
280
     1
281
     1
  3
ACAD_XREC_ROUNDTRIP
360
487
  0
DICTIONARY
  5
494
330
40F
100
AcDbDictionary
280
     1
281
     1
  3
ACAD_XREC_ROUNDTRIP
360
495
  0
DICTIONARY
  5
49C
330
413
100
AcDbDictionary
280
     1
281
     1
  3
ACAD_XREC_ROUNDTRIP
360
49D
  0
DICTIONARY
  5
48E
330
40C
100
AcDbDictionary
280
     1
281
     1
  3
ACAD_XREC_ROUNDTRIP
360
48F
  0
DICTIONARY
  5
492
330
40E
100
AcDbDictionary
280
     1
281
     1
  3
ACAD_XREC_ROUNDTRIP
360
493
  0
DICTIONARY
  5
4AC
330
41B
100
AcDbDictionary
280
     1
281
     1
  3
ACAD_XREC_ROUNDTRIP
360
4AD
  0
DICTIONARY
  5
49A
330
412
100
AcDbDictionary
280
     1
281
     1
  3
ACAD_XREC_ROUNDTRIP
360
49B
  0
DICTIONARY
  5
47E
330
404
100
AcDbDictionary
280
     1
281
     1
  3
ACAD_XREC_ROUNDTRIP
360
47F
  0
DICTIONARY
  5
480
330
405
100
AcDbDictionary
280
     1
281
     1
  3
ACAD_XREC_ROUNDTRIP
360
481
  0
DICTIONARY
  5
482
330
406
100
AcDbDictionary
280
     1
281
     1
  3
ACAD_XREC_ROUNDTRIP
360
483
  0
DICTIONARY
  5
484
330
407
100
AcDbDictionary
280
     1
281
     1
  3
ACAD_XREC_ROUNDTRIP
360
485
  0
DICTIONARY
  5
48C
330
40B
100
AcDbDictionary
280
     1
281
     1
  3
ACAD_XREC_ROUNDTRIP
360
48D
  0
DICTIONARY
  5
4A8
330
419
100
AcDbDictionary
280
     1
281
     1
  3
ACAD_XREC_ROUNDTRIP
360
4A9
  0
DICTIONARY
  5
498
330
411
100
AcDbDictionary
280
     1
281
     1
  3
ACAD_XREC_ROUNDTRIP
360
499
  0
DICTIONARY
  5
4AA
330
41A
100
AcDbDictionary
280
     1
281
     1
  3
ACAD_XREC_ROUNDTRIP
360
4AB
  0
DICTIONARY
  5
490
330
40D
100
AcDbDictionary
280
     1
281
     1
  3
ACAD_XREC_ROUNDTRIP
360
491
  0
DICTIONARY
  5
4A6
330
418
100
AcDbDictionary
280
     1
281
     1
  3
ACAD_XREC_ROUNDTRIP
360
4A7
  0
DICTIONARY
  5
4A4
330
417
100
AcDbDictionary
280
     1
281
     1
  3
ACAD_XREC_ROUNDTRIP
360
4A5
  0
DICTIONARY
  5
49E
330
414
100
AcDbDictionary
280
     1
281
     1
  3
ACAD_XREC_ROUNDTRIP
360
49F
  0
DICTIONARY
  5
4A0
330
415
100
AcDbDictionary
280
     1
281
     1
  3
ACAD_XREC_ROUNDTRIP
360
4A1
  0
DICTIONARY
  5
496
330
410
100
AcDbDictionary
280
     1
281
     1
  3
ACAD_XREC_ROUNDTRIP
360
497
  0
DICTIONARY
  5
48A
330
40A
100
AcDbDictionary
280
     1
281
     1
  3
ACAD_XREC_ROUNDTRIP
360
48B
  0
DICTIONARY
  5
4A2
330
416
100
AcDbDictionary
280
     1
281
     1
  3
ACAD_XREC_ROUNDTRIP
360
4A3
  0
XRECORD
  5
4B3
102
{ACAD_REACTORS
330
4B2
102
}
330
4B2
100
AcDbXrecord
280
     1
102
DISPLAYNAME
  1
Imperial24
102
FLAGS
 90
        0
  0
XRECORD
  5
4B7
102
{ACAD_REACTORS
330
4B6
102
}
330
4B6
100
AcDbXrecord
280
     1
102
SHADEPLOT
 70
     0
102
SHADEPLOTRESLEVEL
 70
     2
102
SHADEPLOTCUSTOMDPI
 70
   300
  0
XRECORD
  5
4B5
102
{ACAD_REACTORS
330
4B4
102
}
330
4B4
100
AcDbXrecord
280
     1
102
SHADEPLOT
 70
     0
102
SHADEPLOTRESLEVEL
 70
     2
102
SHADEPLOTCUSTOMDPI
 70
   300
  0
XRECORD
  5
47C
102
{ACAD_REACTORS
330
3F4
102
}
330
3F4
100
AcDbXrecord
280
     1
102
MATERIAL
148
0.0
149
0.0
149
0.0
 93
        0
 94
      127
282
     0
 72
     0
 77
     0
171
     0
175
     0
179
     0
273
     0
  0
XRECORD
  5
3F6
102
{ACAD_REACTORS
330
3F4
102
}
330
3F4
100
AcDbXrecord
280
     1
270
     1
271
     1
  0
XRECORD
  5
3F5
102
{ACAD_REACTORS
330
3F4
102
}
330
3F4
100
AcDbXrecord
280
     1
270
     1
271
     1
  0
XRECORD
  5
3F9
102
{ACAD_REACTORS
330
3F4
102
}
330
3F4
100
AcDbXrecord
280
     1
270
     1
271
     1
  0
XRECORD
  5
3F8
102
{ACAD_REACTORS
330
3F4
102
}
330
3F4
100
AcDbXrecord
280
     1
270
     1
271
     1
  0
XRECORD
  5
3FA
102
{ACAD_REACTORS
330
3F4
102
}
330
3F4
100
AcDbXrecord
280
     1
270
     1
271
     1
  0
XRECORD
  5
3F7
102
{ACAD_REACTORS
330
3F4
102
}
330
3F4
100
AcDbXrecord
280
     1
270
     1
271
     1
  0
XRECORD
  5
47B
102
{ACAD_REACTORS
330
3EC
102
}
330
3EC
100
AcDbXrecord
280
     1
102
MATERIAL
148
0.0
149
0.0
149
0.0
 93
        0
 94
      127
282
     0
 72
     0
 77
     0
171
     0
175
     0
179
     0
273
     0
  0
XRECORD
  5
3EE
102
{ACAD_REACTORS
330
3EC
102
}
330
3EC
100
AcDbXrecord
280
     1
270
     1
271
     1
  0
XRECORD
  5
3ED
102
{ACAD_REACTORS
330
3EC
102
}
330
3EC
100
AcDbXrecord
280
     1
270
     1
271
     1
  0
XRECORD
  5
3F1
102
{ACAD_REACTORS
330
3EC
102
}
330
3EC
100
AcDbXrecord
280
     1
270
     1
271
     1
  0
XRECORD
  5
3F0
102
{ACAD_REACTORS
330
3EC
102
}
330
3EC
100
AcDbXrecord
280
     1
270
     1
271
     1
  0
XRECORD
  5
3F2
102
{ACAD_REACTORS
330
3EC
102
}
330
3EC
100
AcDbXrecord
280
     1
270
     1
271
     1
  0
XRECORD
  5
3EF
102
{ACAD_REACTORS
330
3EC
102
}
330
3EC
100
AcDbXrecord
280
     1
270
     1
271
     1
  0
XRECORD
  5
47D
102
{ACAD_REACTORS
330
3FC
102
}
330
3FC
100
AcDbXrecord
280
     1
102
MATERIAL
148
0.0
149
0.0
149
0.0
 93
        0
 94
      127
282
     0
 72
     0
 77
     0
171
     0
175
     0
179
     0
273
     0
  0
XRECORD
  5
3FE
102
{ACAD_REACTORS
330
3FC
102
}
330
3FC
100
AcDbXrecord
280
     1
270
     1
271
     1
  0
XRECORD
  5
3FD
102
{ACAD_REACTORS
330
3FC
102
}
330
3FC
100
AcDbXrecord
280
     1
270
     1
271
     1
  0
XRECORD
  5
401
102
{ACAD_REACTORS
330
3FC
102
}
330
3FC
100
AcDbXrecord
280
     1
270
     1
271
     1
  0
XRECORD
  5
400
102
{ACAD_REACTORS
330
3FC
102
}
330
3FC
100
AcDbXrecord
280
     1
270
     1
271
     1
  0
XRECORD
  5
402
102
{ACAD_REACTORS
330
3FC
102
}
330
3FC
100
AcDbXrecord
280
     1
270
     1
271
     1
  0
XRECORD
  5
3FF
102
{ACAD_REACTORS
330
3FC
102
}
330
3FC
100
AcDbXrecord
280
     1
270
     1
271
     1
  0
XRECORD
  5
4B1
102
{ACAD_REACTORS
330
4B0
102
}
330
4B0
100
AcDbXrecord
280
     1
102
DISPLAYNAME
  1
Imperial24
102
FLAGS
 90
        0
  0
CELLSTYLEMAP
  5
478
102
{ACAD_REACTORS
330
477
102
}
330
477
100
AcDbCellStyleMap
 90
        3
300
CELLSTYLE
  1
TABLEFORMAT_BEGIN
 90
        5
170
     1
 91
        0
 92
    32768
 62
   257
 93
        1
300
CONTENTFORMAT
  1
CONTENTFORMAT_BEGIN
 90
        0
 91
        0
 92
      512
 93
        0
300

 40
0.0
140
1.0
 94
        5
 62
     0
340
42F
144
0.25
309
CONTENTFORMAT_END
171
     0
 94
        0
309
TABLEFORMAT_END
  1
CELLSTYLE_BEGIN
 90
        1
 91
        1
300
_TITLE
309
CELLSTYLE_END
300
CELLSTYLE
  1
TABLEFORMAT_BEGIN
 90
        5
170
     1
 91
        0
 92
        0
 62
   257
 93
        1
300
CONTENTFORMAT
  1
CONTENTFORMAT_BEGIN
 90
        0
 91
        0
 92
      512
 93
        0
300

 40
0.0
140
1.0
 94
        5
 62
     0
340
42F
144
0.18
309
CONTENTFORMAT_END
171
     0
 94
        0
309
TABLEFORMAT_END
  1
CELLSTYLE_BEGIN
 90
        2
 91
        1
300
_HEADER
309
CELLSTYLE_END
300
CELLSTYLE
  1
TABLEFORMAT_BEGIN
 90
        5
170
     1
 91
        0
 92
        0
 62
   257
 93
        1
300
CONTENTFORMAT
  1
CONTENTFORMAT_BEGIN
 90
        0
 91
        0
 92
      512
 93
        0
300

 40
0.0
140
1.0
 94
        2
 62
     0
340
42F
144
0.18
309
CONTENTFORMAT_END
171
     0
 94
        0
309
TABLEFORMAT_END
  1
CELLSTYLE_BEGIN
 90
        3
 91
        2
300
_DATA
309
CELLSTYLE_END
  0
XRECORD
  5
4AE
102
{ACAD_REACTORS
330
477
102
}
330
477
100
AcDbXrecord
280
     1
102
ACAD_ROUNDTRIP_PRE2007_TABLESTYLE
 90
      512
 91
        0
  1

 92
      512
 93
        0
  2

 94
      512
 95
        0
  3

  0
XRECORD
  5
489
102
{ACAD_REACTORS
330
488
102
}
330
488
100
AcDbXrecord
280
     1
102
RTVSPost2010Prop28
280
     1
102
RTVSPost2010PropOp28
 70
     1
102
RTVSPost2010Prop29
280
     1
102
RTVSPost2010PropOp29
 70
     1
102
RTVSPost2010Prop30
280
     0
102
RTVSPost2010PropOp30
 70
     1
102
RTVSPost2010Prop31
280
     0
102
RTVSPost2010PropOp31
 70
     1
102
RTVSPost2010Prop32
280
     0
102
RTVSPost2010PropOp32
 70
     1
102
RTVSPost2010Prop33
280
     0
102
RTVSPost2010PropOp33
 70
     1
102
RTVSPost2010Prop34
280
     0
102
RTVSPost2010PropOp34
 70
     1
102
RTVSPost2010Prop35
280
     0
102
RTVSPost2010PropOp35
 70
     1
102
RTVSPost2010Prop36
280
     0
102
RTVSPost2010PropOp36
 70
     1
102
RTVSPost2010Prop37
 90
       50
102
RTVSPost2010PropOp37
 70
     1
102
RTVSPost2010Prop38
140
0.0
102
RTVSPost2010PropOp38
 70
     1
102
RTVSPost2010Prop39
140
1.0
102
RTVSPost2010PropOp39
 70
     1
102
RTVSPost2010Prop40
 90
        0
102
RTVSPost2010PropOp40
 70
     1
102
RTVSPost2010Prop41ColorIndex
 90
       18
102
RTVSPost2010Prop41ColorRGB
 90
        0
102
RTVSPost2010PropOp41
 70
     1
102
RTVSPost2010Prop42
 90
       50
102
RTVSPost2010PropOp42
 70
     1
102
RTVSPost2010Prop43
 90
        3
102
RTVSPost2010PropOp43
 70
     1
102
RTVSPost2010Prop44ColorIndex
 90
        5
102
RTVSPost2010Prop44ColorRGB
 90
      255
102
RTVSPost2010PropOp44
 70
     1
102
RTVSPost2010Prop45
280
     0
102
RTVSPost2010PropOp45
 70
     1
102
RTVSPost2010Prop46
 90
       50
102
RTVSPost2010PropOp46
 70
     1
102
RTVSPost2010Prop47
 90
       50
102
RTVSPost2010PropOp47
 70
     1
102
RTVSPost2010Prop48
 90
       50
102
RTVSPost2010PropOp48
 70
     1
102
RTVSPost2010Prop49
280
     0
102
RTVSPost2010PropOp49
 70
     1
102
RTVSPost2010Prop50
 90
       50
102
RTVSPost2010PropOp50
 70
     1
102
RTVSPost2010Prop51ColorIndex
 90
      256
102
RTVSPost2010Prop51ColorRGB
 90
-16777216
102
RTVSPost2010PropOp51
 70
     0
102
RTVSPost2010Prop52
140
1.0
102
RTVSPost2010PropOp52
 70
     0
102
RTVSPost2010Prop53
 90
        2
102
RTVSPost2010PropOp53
 70
     1
102
RTVSPost2010Prop54
  1
strokes_ogs.tif
102
RTVSPost2010PropOp54
 70
     1
102
RTVSPost2010Prop55
280
     0
102
RTVSPost2010PropOp55
 70
     1
102
RTVSPost2010Prop56
140
1.0
102
RTVSPost2010PropOp56
 70
     1
102
RTVSPost2010Prop57
140
1.0
102
RTVSPost2010PropOp57
 70
     1
102
RTVSPropertyOp0
 70
     1
102
RTVSPropertyOp1
 70
     1
102
RTVSPropertyOp2
 70
     1
102
RTVSPropertyOp3
 70
     1
102
RTVSPropertyOp4
 70
     1
102
RTVSPropertyOp5
 70
     1
102
RTVSPropertyOp6
 70
     1
102
RTVSPropertyOp7
 70
     1
102
RTVSPropertyOp8
 70
     1
102
RTVSPropertyOp9
 70
     1
102
RTVSPropertyOp10
 70
     1
102
RTVSPropertyOp11
 70
     1
102
RTVSPropertyOp12
 70
     1
102
RTVSPropertyOp13
 70
     1
102
RTVSPropertyOp14
 70
     1
102
RTVSPropertyOp15
 70
     1
102
RTVSPropertyOp16
 70
     1
102
RTVSPropertyOp17
 70
     1
102
RTVSPropertyOp18
 70
     1
102
RTVSPropertyOp19
 70
     1
102
RTVSPropertyOp20
 70
     1
102
RTVSPropertyOp21
 70
     1
102
RTVSPropertyOp22
 70
     1
102
RTVSPropertyOp23
 70
     1
102
RTVSPropertyOp24
 70
     1
102
RTVSPropertyOp25
 70
     1
102
RTVSPropertyOp26
 70
     1
102
RTVSPropertyOp27
 70
     1
102
RTVSPropertyOp28
 70
     1
102
RTVSPropertyOp29
 70
     1
102
RTVSPropertyOp30
 70
     1
102
RTVSPropertyOp31
 70
     1
102
RTVSPropertyOp32
 70
     1
102
RTVSPropertyOp33
 70
     1
102
RTVSPropertyOp34
 70
     1
102
RTVSPropertyOp35
 70
     1
102
RTVSPropertyOp36
 70
     1
102
RTVSPropertyOp37
 70
     1
102
RTVSPropertyOp38
 70
     1
102
RTVSPropertyOp39
 70
     1
102
RTVSPropertyOp40
 70
     1
102
RTVSPropertyOp41
 70
     1
102
RTVSPropertyOp42
 70
     1
102
RTVSPropertyOp43
 70
     1
102
RTVSPropertyOp44
 70
     1
102
RTVSPropertyOp45
 70
     1
102
RTVSPropertyOp46
 70
     1
102
RTVSPropertyOp47
 70
     1
102
RTVSPropertyOp48
 70
     1
102
RTVSPropertyOp49
 70
     1
102
RTVSPropertyOp50
 70
     1
102
RTVSPropertyOp51
 70
     0
102
RTVSPropertyOp52
 70
     0
102
RTVSPropertyOp53
 70
     1
102
RTVSPropertyOp54
 70
     1
102
RTVSPropertyOp55
 70
     1
102
RTVSPropertyOp56
 70
     1
102
RTVSPropertyOp57
 70
     1
102
RTVSPropertyOp58
 70
     1
102
RTVSPropertyOp59
 70
     1
102
RTVSPropertyOp60
 70
     1
102
RTVSPropertyOp61
 70
     1
102
RTVSPropertyOp62
 70
     1
  0
XRECORD
  5
487
102
{ACAD_REACTORS
330
486
102
}
330
486
100
AcDbXrecord
280
     1
102
RTVSPost2010Prop28
280
     0
102
RTVSPost2010PropOp28
 70
     1
102
RTVSPost2010Prop29
280
     1
102
RTVSPost2010PropOp29
 70
     1
102
RTVSPost2010Prop30
280
     1
102
RTVSPost2010PropOp30
 70
     1
102
RTVSPost2010Prop31
280
     0
102
RTVSPost2010PropOp31
 70
     1
102
RTVSPost2010Prop32
280
     0
102
RTVSPost2010PropOp32
 70
     1
102
RTVSPost2010Prop33
280
     0
102
RTVSPost2010PropOp33
 70
     1
102
RTVSPost2010Prop34
280
     0
102
RTVSPost2010PropOp34
 70
     1
102
RTVSPost2010Prop35
280
     0
102
RTVSPost2010PropOp35
 70
     1
102
RTVSPost2010Prop36
280
     0
102
RTVSPost2010PropOp36
 70
     1
102
RTVSPost2010Prop37
 90
       50
102
RTVSPost2010PropOp37
 70
     1
102
RTVSPost2010Prop38
140
0.0
102
RTVSPost2010PropOp38
 70
     1
102
RTVSPost2010Prop39
140
1.0
102
RTVSPost2010PropOp39
 70
     1
102
RTVSPost2010Prop40
 90
        0
102
RTVSPost2010PropOp40
 70
     1
102
RTVSPost2010Prop41ColorIndex
 90
       18
102
RTVSPost2010Prop41ColorRGB
 90
        0
102
RTVSPost2010PropOp41
 70
     1
102
RTVSPost2010Prop42
 90
       50
102
RTVSPost2010PropOp42
 70
     1
102
RTVSPost2010Prop43
 90
        3
102
RTVSPost2010PropOp43
 70
     1
102
RTVSPost2010Prop44ColorIndex
 90
        5
102
RTVSPost2010Prop44ColorRGB
 90
      255
102
RTVSPost2010PropOp44
 70
     1
102
RTVSPost2010Prop45
280
     0
102
RTVSPost2010PropOp45
 70
     1
102
RTVSPost2010Prop46
 90
       50
102
RTVSPost2010PropOp46
 70
     1
102
RTVSPost2010Prop47
 90
       50
102
RTVSPost2010PropOp47
 70
     1
102
RTVSPost2010Prop48
 90
       50
102
RTVSPost2010PropOp48
 70
     1
102
RTVSPost2010Prop49
280
     0
102
RTVSPost2010PropOp49
 70
     1
102
RTVSPost2010Prop50
 90
       50
102
RTVSPost2010PropOp50
 70
     1
102
RTVSPost2010Prop51ColorIndex
 90
      256
102
RTVSPost2010Prop51ColorRGB
 90
-16777216
102
RTVSPost2010PropOp51
 70
     0
102
RTVSPost2010Prop52
140
1.0
102
RTVSPost2010PropOp52
 70
     0
102
RTVSPost2010Prop53
 90
        2
102
RTVSPost2010PropOp53
 70
     1
102
RTVSPost2010Prop54
  1
strokes_ogs.tif
102
RTVSPost2010PropOp54
 70
     1
102
RTVSPost2010Prop55
280
     0
102
RTVSPost2010PropOp55
 70
     1
102
RTVSPost2010Prop56
140
1.0
102
RTVSPost2010PropOp56
 70
     1
102
RTVSPost2010Prop57
140
1.0
102
RTVSPost2010PropOp57
 70
     1
102
RTVSPropertyOp0
 70
     1
102
RTVSPropertyOp1
 70
     1
102
RTVSPropertyOp2
 70
     1
102
RTVSPropertyOp3
 70
     1
102
RTVSPropertyOp4
 70
     1
102
RTVSPropertyOp5
 70
     1
102
RTVSPropertyOp6
 70
     1
102
RTVSPropertyOp7
 70
     1
102
RTVSPropertyOp8
 70
     1
102
RTVSPropertyOp9
 70
     1
102
RTVSPropertyOp10
 70
     1
102
RTVSPropertyOp11
 70
     1
102
RTVSPropertyOp12
 70
     1
102
RTVSPropertyOp13
 70
     1
102
RTVSPropertyOp14
 70
     1
102
RTVSPropertyOp15
 70
     1
102
RTVSPropertyOp16
 70
     1
102
RTVSPropertyOp17
 70
     1
102
RTVSPropertyOp18
 70
     1
102
RTVSPropertyOp19
 70
     1
102
RTVSPropertyOp20
 70
     1
102
RTVSPropertyOp21
 70
     1
102
RTVSPropertyOp22
 70
     1
102
RTVSPropertyOp23
 70
     1
102
RTVSPropertyOp24
 70
     1
102
RTVSPropertyOp25
 70
     1
102
RTVSPropertyOp26
 70
     1
102
RTVSPropertyOp27
 70
     1
102
RTVSPropertyOp28
 70
     1
102
RTVSPropertyOp29
 70
     1
102
RTVSPropertyOp30
 70
     1
102
RTVSPropertyOp31
 70
     1
102
RTVSPropertyOp32
 70
     1
102
RTVSPropertyOp33
 70
     1
102
RTVSPropertyOp34
 70
     1
102
RTVSPropertyOp35
 70
     1
102
RTVSPropertyOp36
 70
     1
102
RTVSPropertyOp37
 70
     1
102
RTVSPropertyOp38
 70
     1
102
RTVSPropertyOp39
 70
     1
102
RTVSPropertyOp40
 70
     1
102
RTVSPropertyOp41
 70
     1
102
RTVSPropertyOp42
 70
     1
102
RTVSPropertyOp43
 70
     1
102
RTVSPropertyOp44
 70
     1
102
RTVSPropertyOp45
 70
     1
102
RTVSPropertyOp46
 70
     1
102
RTVSPropertyOp47
 70
     1
102
RTVSPropertyOp48
 70
     1
102
RTVSPropertyOp49
 70
     1
102
RTVSPropertyOp50
 70
     1
102
RTVSPropertyOp51
 70
     0
102
RTVSPropertyOp52
 70
     0
102
RTVSPropertyOp53
 70
     1
102
RTVSPropertyOp54
 70
     1
102
RTVSPropertyOp55
 70
     1
102
RTVSPropertyOp56
 70
     1
102
RTVSPropertyOp57
 70
     1
102
RTVSPropertyOp58
 70
     1
102
RTVSPropertyOp59
 70
     1
102
RTVSPropertyOp60
 70
     1
102
RTVSPropertyOp61
 70
     1
102
RTVSPropertyOp62
 70
     1
  0
XRECORD
  5
495
102
{ACAD_REACTORS
330
494
102
}
330
494
100
AcDbXrecord
280
     1
102
RTVSPost2010Prop28
280
     0
102
RTVSPost2010PropOp28
 70
     1
102
RTVSPost2010Prop29
280
     1
102
RTVSPost2010PropOp29
 70
     1
102
RTVSPost2010Prop30
280
     1
102
RTVSPost2010PropOp30
 70
     1
102
RTVSPost2010Prop31
280
     0
102
RTVSPost2010PropOp31
 70
     1
102
RTVSPost2010Prop32
280
     0
102
RTVSPost2010PropOp32
 70
     1
102
RTVSPost2010Prop33
280
     0
102
RTVSPost2010PropOp33
 70
     1
102
RTVSPost2010Prop34
280
     0
102
RTVSPost2010PropOp34
 70
     1
102
RTVSPost2010Prop35
280
     0
102
RTVSPost2010PropOp35
 70
     1
102
RTVSPost2010Prop36
280
     0
102
RTVSPost2010PropOp36
 70
     1
102
RTVSPost2010Prop37
 90
       50
102
RTVSPost2010PropOp37
 70
     1
102
RTVSPost2010Prop38
140
0.0
102
RTVSPost2010PropOp38
 70
     1
102
RTVSPost2010Prop39
140
1.0
102
RTVSPost2010PropOp39
 70
     1
102
RTVSPost2010Prop40
 90
        0
102
RTVSPost2010PropOp40
 70
     1
102
RTVSPost2010Prop41ColorIndex
 90
       18
102
RTVSPost2010Prop41ColorRGB
 90
        0
102
RTVSPost2010PropOp41
 70
     1
102
RTVSPost2010Prop42
 90
       50
102
RTVSPost2010PropOp42
 70
     1
102
RTVSPost2010Prop43
 90
        3
102
RTVSPost2010PropOp43
 70
     1
102
RTVSPost2010Prop44ColorIndex
 90
        5
102
RTVSPost2010Prop44ColorRGB
 90
      255
102
RTVSPost2010PropOp44
 70
     1
102
RTVSPost2010Prop45
280
     0
102
RTVSPost2010PropOp45
 70
     1
102
RTVSPost2010Prop46
 90
       50
102
RTVSPost2010PropOp46
 70
     1
102
RTVSPost2010Prop47
 90
       50
102
RTVSPost2010PropOp47
 70
     1
102
RTVSPost2010Prop48
 90
       50
102
RTVSPost2010PropOp48
 70
     1
102
RTVSPost2010Prop49
280
     0
102
RTVSPost2010PropOp49
 70
     1
102
RTVSPost2010Prop50
 90
       50
102
RTVSPost2010PropOp50
 70
     1
102
RTVSPost2010Prop51ColorIndex
 90
      256
102
RTVSPost2010Prop51ColorRGB
 90
-16777216
102
RTVSPost2010PropOp51
 70
     0
102
RTVSPost2010Prop52
140
1.0
102
RTVSPost2010PropOp52
 70
     0
102
RTVSPost2010Prop53
 90
        2
102
RTVSPost2010PropOp53
 70
     1
102
RTVSPost2010Prop54
  1
strokes_ogs.tif
102
RTVSPost2010PropOp54
 70
     1
102
RTVSPost2010Prop55
280
     0
102
RTVSPost2010PropOp55
 70
     1
102
RTVSPost2010Prop56
140
1.0
102
RTVSPost2010PropOp56
 70
     1
102
RTVSPost2010Prop57
140
1.0
102
RTVSPost2010PropOp57
 70
     1
102
RTVSPropertyOp0
 70
     1
102
RTVSPropertyOp1
 70
     1
102
RTVSPropertyOp2
 70
     1
102
RTVSPropertyOp3
 70
     1
102
RTVSPropertyOp4
 70
     1
102
RTVSPropertyOp5
 70
     1
102
RTVSPropertyOp6
 70
     1
102
RTVSPropertyOp7
 70
     1
102
RTVSPropertyOp8
 70
     1
102
RTVSPropertyOp9
 70
     1
102
RTVSPropertyOp10
 70
     1
102
RTVSPropertyOp11
 70
     1
102
RTVSPropertyOp12
 70
     1
102
RTVSPropertyOp13
 70
     1
102
RTVSPropertyOp14
 70
     1
102
RTVSPropertyOp15
 70
     1
102
RTVSPropertyOp16
 70
     1
102
RTVSPropertyOp17
 70
     1
102
RTVSPropertyOp18
 70
     1
102
RTVSPropertyOp19
 70
     1
102
RTVSPropertyOp20
 70
     1
102
RTVSPropertyOp21
 70
     1
102
RTVSPropertyOp22
 70
     1
102
RTVSPropertyOp23
 70
     1
102
RTVSPropertyOp24
 70
     1
102
RTVSPropertyOp25
 70
     1
102
RTVSPropertyOp26
 70
     1
102
RTVSPropertyOp27
 70
     1
102
RTVSPropertyOp28
 70
     1
102
RTVSPropertyOp29
 70
     1
102
RTVSPropertyOp30
 70
     1
102
RTVSPropertyOp31
 70
     1
102
RTVSPropertyOp32
 70
     1
102
RTVSPropertyOp33
 70
     1
102
RTVSPropertyOp34
 70
     1
102
RTVSPropertyOp35
 70
     1
102
RTVSPropertyOp36
 70
     1
102
RTVSPropertyOp37
 70
     1
102
RTVSPropertyOp38
 70
     1
102
RTVSPropertyOp39
 70
     1
102
RTVSPropertyOp40
 70
     1
102
RTVSPropertyOp41
 70
     1
102
RTVSPropertyOp42
 70
     1
102
RTVSPropertyOp43
 70
     1
102
RTVSPropertyOp44
 70
     1
102
RTVSPropertyOp45
 70
     1
102
RTVSPropertyOp46
 70
     1
102
RTVSPropertyOp47
 70
     1
102
RTVSPropertyOp48
 70
     1
102
RTVSPropertyOp49
 70
     1
102
RTVSPropertyOp50
 70
     1
102
RTVSPropertyOp51
 70
     0
102
RTVSPropertyOp52
 70
     0
102
RTVSPropertyOp53
 70
     1
102
RTVSPropertyOp54
 70
     1
102
RTVSPropertyOp55
 70
     1
102
RTVSPropertyOp56
 70
     1
102
RTVSPropertyOp57
 70
     1
102
RTVSPropertyOp58
 70
     1
102
RTVSPropertyOp59
 70
     1
102
RTVSPropertyOp60
 70
     1
102
RTVSPropertyOp61
 70
     1
102
RTVSPropertyOp62
 70
     1
  0
XRECORD
  5
49D
102
{ACAD_REACTORS
330
49C
102
}
330
49C
100
AcDbXrecord
280
     1
102
RTVSPost2010Prop28
280
     0
102
RTVSPost2010PropOp28
 70
     1
102
RTVSPost2010Prop29
280
     1
102
RTVSPost2010PropOp29
 70
     1
102
RTVSPost2010Prop30
280
     1
102
RTVSPost2010PropOp30
 70
     1
102
RTVSPost2010Prop31
280
     0
102
RTVSPost2010PropOp31
 70
     1
102
RTVSPost2010Prop32
280
     0
102
RTVSPost2010PropOp32
 70
     1
102
RTVSPost2010Prop33
280
     0
102
RTVSPost2010PropOp33
 70
     1
102
RTVSPost2010Prop34
280
     0
102
RTVSPost2010PropOp34
 70
     1
102
RTVSPost2010Prop35
280
     0
102
RTVSPost2010PropOp35
 70
     1
102
RTVSPost2010Prop36
280
     0
102
RTVSPost2010PropOp36
 70
     1
102
RTVSPost2010Prop37
 90
       50
102
RTVSPost2010PropOp37
 70
     1
102
RTVSPost2010Prop38
140
0.0
102
RTVSPost2010PropOp38
 70
     1
102
RTVSPost2010Prop39
140
1.0
102
RTVSPost2010PropOp39
 70
     1
102
RTVSPost2010Prop40
 90
        0
102
RTVSPost2010PropOp40
 70
     1
102
RTVSPost2010Prop41ColorIndex
 90
       18
102
RTVSPost2010Prop41ColorRGB
 90
        0
102
RTVSPost2010PropOp41
 70
     1
102
RTVSPost2010Prop42
 90
       50
102
RTVSPost2010PropOp42
 70
     1
102
RTVSPost2010Prop43
 90
        3
102
RTVSPost2010PropOp43
 70
     1
102
RTVSPost2010Prop44ColorIndex
 90
        5
102
RTVSPost2010Prop44ColorRGB
 90
      255
102
RTVSPost2010PropOp44
 70
     1
102
RTVSPost2010Prop45
280
     0
102
RTVSPost2010PropOp45
 70
     1
102
RTVSPost2010Prop46
 90
       50
102
RTVSPost2010PropOp46
 70
     1
102
RTVSPost2010Prop47
 90
       50
102
RTVSPost2010PropOp47
 70
     1
102
RTVSPost2010Prop48
 90
       50
102
RTVSPost2010PropOp48
 70
     1
102
RTVSPost2010Prop49
280
     0
102
RTVSPost2010PropOp49
 70
     1
102
RTVSPost2010Prop50
 90
       50
102
RTVSPost2010PropOp50
 70
     1
102
RTVSPost2010Prop51ColorIndex
 90
      256
102
RTVSPost2010Prop51ColorRGB
 90
-16777216
102
RTVSPost2010PropOp51
 70
     0
102
RTVSPost2010Prop52
140
1.0
102
RTVSPost2010PropOp52
 70
     0
102
RTVSPost2010Prop53
 90
        2
102
RTVSPost2010PropOp53
 70
     1
102
RTVSPost2010Prop54
  1
strokes_ogs.tif
102
RTVSPost2010PropOp54
 70
     1
102
RTVSPost2010Prop55
280
     0
102
RTVSPost2010PropOp55
 70
     1
102
RTVSPost2010Prop56
140
1.0
102
RTVSPost2010PropOp56
 70
     1
102
RTVSPost2010Prop57
140
1.0
102
RTVSPost2010PropOp57
 70
     1
102
RTVSPropertyOp0
 70
     1
102
RTVSPropertyOp1
 70
     1
102
RTVSPropertyOp2
 70
     1
102
RTVSPropertyOp3
 70
     1
102
RTVSPropertyOp4
 70
     1
102
RTVSPropertyOp5
 70
     1
102
RTVSPropertyOp6
 70
     1
102
RTVSPropertyOp7
 70
     1
102
RTVSPropertyOp8
 70
     1
102
RTVSPropertyOp9
 70
     1
102
RTVSPropertyOp10
 70
     1
102
RTVSPropertyOp11
 70
     1
102
RTVSPropertyOp12
 70
     1
102
RTVSPropertyOp13
 70
     1
102
RTVSPropertyOp14
 70
     1
102
RTVSPropertyOp15
 70
     1
102
RTVSPropertyOp16
 70
     1
102
RTVSPropertyOp17
 70
     1
102
RTVSPropertyOp18
 70
     1
102
RTVSPropertyOp19
 70
     1
102
RTVSPropertyOp20
 70
     1
102
RTVSPropertyOp21
 70
     1
102
RTVSPropertyOp22
 70
     1
102
RTVSPropertyOp23
 70
     1
102
RTVSPropertyOp24
 70
     1
102
RTVSPropertyOp25
 70
     1
102
RTVSPropertyOp26
 70
     1
102
RTVSPropertyOp27
 70
     1
102
RTVSPropertyOp28
 70
     1
102
RTVSPropertyOp29
 70
     1
102
RTVSPropertyOp30
 70
     1
102
RTVSPropertyOp31
 70
     1
102
RTVSPropertyOp32
 70
     1
102
RTVSPropertyOp33
 70
     1
102
RTVSPropertyOp34
 70
     1
102
RTVSPropertyOp35
 70
     1
102
RTVSPropertyOp36
 70
     1
102
RTVSPropertyOp37
 70
     1
102
RTVSPropertyOp38
 70
     1
102
RTVSPropertyOp39
 70
     1
102
RTVSPropertyOp40
 70
     1
102
RTVSPropertyOp41
 70
     1
102
RTVSPropertyOp42
 70
     1
102
RTVSPropertyOp43
 70
     1
102
RTVSPropertyOp44
 70
     1
102
RTVSPropertyOp45
 70
     1
102
RTVSPropertyOp46
 70
     1
102
RTVSPropertyOp47
 70
     1
102
RTVSPropertyOp48
 70
     1
102
RTVSPropertyOp49
 70
     1
102
RTVSPropertyOp50
 70
     1
102
RTVSPropertyOp51
 70
     0
102
RTVSPropertyOp52
 70
     0
102
RTVSPropertyOp53
 70
     1
102
RTVSPropertyOp54
 70
     1
102
RTVSPropertyOp55
 70
     1
102
RTVSPropertyOp56
 70
     1
102
RTVSPropertyOp57
 70
     1
102
RTVSPropertyOp58
 70
     1
102
RTVSPropertyOp59
 70
     1
102
RTVSPropertyOp60
 70
     1
102
RTVSPropertyOp61
 70
     1
102
RTVSPropertyOp62
 70
     1
  0
XRECORD
  5
48F
102
{ACAD_REACTORS
330
48E
102
}
330
48E
100
AcDbXrecord
280
     1
102
RTVSPost2010Prop28
280
     0
102
RTVSPost2010PropOp28
 70
     1
102
RTVSPost2010Prop29
280
     1
102
RTVSPost2010PropOp29
 70
     1
102
RTVSPost2010Prop30
280
     1
102
RTVSPost2010PropOp30
 70
     1
102
RTVSPost2010Prop31
280
     0
102
RTVSPost2010PropOp31
 70
     1
102
RTVSPost2010Prop32
280
     0
102
RTVSPost2010PropOp32
 70
     1
102
RTVSPost2010Prop33
280
     0
102
RTVSPost2010PropOp33
 70
     1
102
RTVSPost2010Prop34
280
     0
102
RTVSPost2010PropOp34
 70
     1
102
RTVSPost2010Prop35
280
     0
102
RTVSPost2010PropOp35
 70
     1
102
RTVSPost2010Prop36
280
     0
102
RTVSPost2010PropOp36
 70
     1
102
RTVSPost2010Prop37
 90
       50
102
RTVSPost2010PropOp37
 70
     1
102
RTVSPost2010Prop38
140
0.0
102
RTVSPost2010PropOp38
 70
     1
102
RTVSPost2010Prop39
140
1.0
102
RTVSPost2010PropOp39
 70
     1
102
RTVSPost2010Prop40
 90
        0
102
RTVSPost2010PropOp40
 70
     1
102
RTVSPost2010Prop41ColorIndex
 90
       18
102
RTVSPost2010Prop41ColorRGB
 90
        0
102
RTVSPost2010PropOp41
 70
     1
102
RTVSPost2010Prop42
 90
       50
102
RTVSPost2010PropOp42
 70
     1
102
RTVSPost2010Prop43
 90
        3
102
RTVSPost2010PropOp43
 70
     1
102
RTVSPost2010Prop44ColorIndex
 90
        5
102
RTVSPost2010Prop44ColorRGB
 90
      255
102
RTVSPost2010PropOp44
 70
     1
102
RTVSPost2010Prop45
280
     0
102
RTVSPost2010PropOp45
 70
     1
102
RTVSPost2010Prop46
 90
       50
102
RTVSPost2010PropOp46
 70
     1
102
RTVSPost2010Prop47
 90
       50
102
RTVSPost2010PropOp47
 70
     1
102
RTVSPost2010Prop48
 90
       50
102
RTVSPost2010PropOp48
 70
     1
102
RTVSPost2010Prop49
280
     0
102
RTVSPost2010PropOp49
 70
     1
102
RTVSPost2010Prop50
 90
       50
102
RTVSPost2010PropOp50
 70
     1
102
RTVSPost2010Prop51ColorIndex
 90
      256
102
RTVSPost2010Prop51ColorRGB
 90
-16777216
102
RTVSPost2010PropOp51
 70
     0
102
RTVSPost2010Prop52
140
1.0
102
RTVSPost2010PropOp52
 70
     0
102
RTVSPost2010Prop53
 90
        2
102
RTVSPost2010PropOp53
 70
     1
102
RTVSPost2010Prop54
  1
strokes_ogs.tif
102
RTVSPost2010PropOp54
 70
     1
102
RTVSPost2010Prop55
280
     0
102
RTVSPost2010PropOp55
 70
     1
102
RTVSPost2010Prop56
140
1.0
102
RTVSPost2010PropOp56
 70
     1
102
RTVSPost2010Prop57
140
1.0
102
RTVSPost2010PropOp57
 70
     1
102
RTVSPropertyOp0
 70
     1
102
RTVSPropertyOp1
 70
     1
102
RTVSPropertyOp2
 70
     1
102
RTVSPropertyOp3
 70
     1
102
RTVSPropertyOp4
 70
     1
102
RTVSPropertyOp5
 70
     1
102
RTVSPropertyOp6
 70
     1
102
RTVSPropertyOp7
 70
     1
102
RTVSPropertyOp8
 70
     1
102
RTVSPropertyOp9
 70
     1
102
RTVSPropertyOp10
 70
     1
102
RTVSPropertyOp11
 70
     1
102
RTVSPropertyOp12
 70
     1
102
RTVSPropertyOp13
 70
     1
102
RTVSPropertyOp14
 70
     1
102
RTVSPropertyOp15
 70
     1
102
RTVSPropertyOp16
 70
     1
102
RTVSPropertyOp17
 70
     1
102
RTVSPropertyOp18
 70
     1
102
RTVSPropertyOp19
 70
     1
102
RTVSPropertyOp20
 70
     1
102
RTVSPropertyOp21
 70
     1
102
RTVSPropertyOp22
 70
     1
102
RTVSPropertyOp23
 70
     1
102
RTVSPropertyOp24
 70
     1
102
RTVSPropertyOp25
 70
     1
102
RTVSPropertyOp26
 70
     1
102
RTVSPropertyOp27
 70
     1
102
RTVSPropertyOp28
 70
     1
102
RTVSPropertyOp29
 70
     1
102
RTVSPropertyOp30
 70
     1
102
RTVSPropertyOp31
 70
     1
102
RTVSPropertyOp32
 70
     1
102
RTVSPropertyOp33
 70
     1
102
RTVSPropertyOp34
 70
     1
102
RTVSPropertyOp35
 70
     1
102
RTVSPropertyOp36
 70
     1
102
RTVSPropertyOp37
 70
     1
102
RTVSPropertyOp38
 70
     1
102
RTVSPropertyOp39
 70
     1
102
RTVSPropertyOp40
 70
     1
102
RTVSPropertyOp41
 70
     1
102
RTVSPropertyOp42
 70
     1
102
RTVSPropertyOp43
 70
     1
102
RTVSPropertyOp44
 70
     1
102
RTVSPropertyOp45
 70
     1
102
RTVSPropertyOp46
 70
     1
102
RTVSPropertyOp47
 70
     1
102
RTVSPropertyOp48
 70
     1
102
RTVSPropertyOp49
 70
     1
102
RTVSPropertyOp50
 70
     1
102
RTVSPropertyOp51
 70
     0
102
RTVSPropertyOp52
 70
     0
102
RTVSPropertyOp53
 70
     1
102
RTVSPropertyOp54
 70
     1
102
RTVSPropertyOp55
 70
     1
102
RTVSPropertyOp56
 70
     1
102
RTVSPropertyOp57
 70
     1
102
RTVSPropertyOp58
 70
     1
102
RTVSPropertyOp59
 70
     1
102
RTVSPropertyOp60
 70
     1
102
RTVSPropertyOp61
 70
     1
102
RTVSPropertyOp62
 70
     1
  0
XRECORD
  5
493
102
{ACAD_REACTORS
330
492
102
}
330
492
100
AcDbXrecord
280
     1
102
RTVSPost2010Prop28
280
     0
102
RTVSPost2010PropOp28
 70
     1
102
RTVSPost2010Prop29
280
     1
102
RTVSPost2010PropOp29
 70
     1
102
RTVSPost2010Prop30
280
     1
102
RTVSPost2010PropOp30
 70
     1
102
RTVSPost2010Prop31
280
     0
102
RTVSPost2010PropOp31
 70
     1
102
RTVSPost2010Prop32
280
     0
102
RTVSPost2010PropOp32
 70
     1
102
RTVSPost2010Prop33
280
     0
102
RTVSPost2010PropOp33
 70
     1
102
RTVSPost2010Prop34
280
     0
102
RTVSPost2010PropOp34
 70
     1
102
RTVSPost2010Prop35
280
     0
102
RTVSPost2010PropOp35
 70
     1
102
RTVSPost2010Prop36
280
     0
102
RTVSPost2010PropOp36
 70
     1
102
RTVSPost2010Prop37
 90
       50
102
RTVSPost2010PropOp37
 70
     1
102
RTVSPost2010Prop38
140
0.0
102
RTVSPost2010PropOp38
 70
     1
102
RTVSPost2010Prop39
140
1.0
102
RTVSPost2010PropOp39
 70
     1
102
RTVSPost2010Prop40
 90
        0
102
RTVSPost2010PropOp40
 70
     1
102
RTVSPost2010Prop41ColorIndex
 90
       18
102
RTVSPost2010Prop41ColorRGB
 90
        0
102
RTVSPost2010PropOp41
 70
     1
102
RTVSPost2010Prop42
 90
       50
102
RTVSPost2010PropOp42
 70
     1
102
RTVSPost2010Prop43
 90
        3
102
RTVSPost2010PropOp43
 70
     1
102
RTVSPost2010Prop44ColorIndex
 90
        5
102
RTVSPost2010Prop44ColorRGB
 90
      255
102
RTVSPost2010PropOp44
 70
     1
102
RTVSPost2010Prop45
280
     0
102
RTVSPost2010PropOp45
 70
     1
102
RTVSPost2010Prop46
 90
       50
102
RTVSPost2010PropOp46
 70
     1
102
RTVSPost2010Prop47
 90
       50
102
RTVSPost2010PropOp47
 70
     1
102
RTVSPost2010Prop48
 90
       50
102
RTVSPost2010PropOp48
 70
     1
102
RTVSPost2010Prop49
280
     0
102
RTVSPost2010PropOp49
 70
     1
102
RTVSPost2010Prop50
 90
       50
102
RTVSPost2010PropOp50
 70
     1
102
RTVSPost2010Prop51ColorIndex
 90
      256
102
RTVSPost2010Prop51ColorRGB
 90
-16777216
102
RTVSPost2010PropOp51
 70
     0
102
RTVSPost2010Prop52
140
1.0
102
RTVSPost2010PropOp52
 70
     0
102
RTVSPost2010Prop53
 90
        2
102
RTVSPost2010PropOp53
 70
     1
102
RTVSPost2010Prop54
  1
strokes_ogs.tif
102
RTVSPost2010PropOp54
 70
     1
102
RTVSPost2010Prop55
280
     0
102
RTVSPost2010PropOp55
 70
     1
102
RTVSPost2010Prop56
140
1.0
102
RTVSPost2010PropOp56
 70
     1
102
RTVSPost2010Prop57
140
1.0
102
RTVSPost2010PropOp57
 70
     1
102
RTVSPropertyOp0
 70
     1
102
RTVSPropertyOp1
 70
     1
102
RTVSPropertyOp2
 70
     1
102
RTVSPropertyOp3
 70
     1
102
RTVSPropertyOp4
 70
     1
102
RTVSPropertyOp5
 70
     1
102
RTVSPropertyOp6
 70
     1
102
RTVSPropertyOp7
 70
     1
102
RTVSPropertyOp8
 70
     1
102
RTVSPropertyOp9
 70
     1
102
RTVSPropertyOp10
 70
     1
102
RTVSPropertyOp11
 70
     1
102
RTVSPropertyOp12
 70
     1
102
RTVSPropertyOp13
 70
     1
102
RTVSPropertyOp14
 70
     1
102
RTVSPropertyOp15
 70
     1
102
RTVSPropertyOp16
 70
     1
102
RTVSPropertyOp17
 70
     1
102
RTVSPropertyOp18
 70
     1
102
RTVSPropertyOp19
 70
     1
102
RTVSPropertyOp20
 70
     1
102
RTVSPropertyOp21
 70
     1
102
RTVSPropertyOp22
 70
     1
102
RTVSPropertyOp23
 70
     1
102
RTVSPropertyOp24
 70
     1
102
RTVSPropertyOp25
 70
     1
102
RTVSPropertyOp26
 70
     1
102
RTVSPropertyOp27
 70
     1
102
RTVSPropertyOp28
 70
     1
102
RTVSPropertyOp29
 70
     1
102
RTVSPropertyOp30
 70
     1
102
RTVSPropertyOp31
 70
     1
102
RTVSPropertyOp32
 70
     1
102
RTVSPropertyOp33
 70
     1
102
RTVSPropertyOp34
 70
     1
102
RTVSPropertyOp35
 70
     1
102
RTVSPropertyOp36
 70
     1
102
RTVSPropertyOp37
 70
     1
102
RTVSPropertyOp38
 70
     1
102
RTVSPropertyOp39
 70
     1
102
RTVSPropertyOp40
 70
     1
102
RTVSPropertyOp41
 70
     1
102
RTVSPropertyOp42
 70
     1
102
RTVSPropertyOp43
 70
     1
102
RTVSPropertyOp44
 70
     1
102
RTVSPropertyOp45
 70
     1
102
RTVSPropertyOp46
 70
     1
102
RTVSPropertyOp47
 70
     1
102
RTVSPropertyOp48
 70
     1
102
RTVSPropertyOp49
 70
     1
102
RTVSPropertyOp50
 70
     1
102
RTVSPropertyOp51
 70
     0
102
RTVSPropertyOp52
 70
     0
102
RTVSPropertyOp53
 70
     1
102
RTVSPropertyOp54
 70
     1
102
RTVSPropertyOp55
 70
     1
102
RTVSPropertyOp56
 70
     1
102
RTVSPropertyOp57
 70
     1
102
RTVSPropertyOp58
 70
     1
102
RTVSPropertyOp59
 70
     1
102
RTVSPropertyOp60
 70
     1
102
RTVSPropertyOp61
 70
     1
102
RTVSPropertyOp62
 70
     1
  0
XRECORD
  5
4AD
102
{ACAD_REACTORS
330
4AC
102
}
330
4AC
100
AcDbXrecord
280
     1
102
RTVSPost2010Prop28
280
     0
102
RTVSPost2010PropOp28
 70
     1
102
RTVSPost2010Prop29
280
     1
102
RTVSPost2010PropOp29
 70
     1
102
RTVSPost2010Prop30
280
     1
102
RTVSPost2010PropOp30
 70
     1
102
RTVSPost2010Prop31
280
     0
102
RTVSPost2010PropOp31
 70
     1
102
RTVSPost2010Prop32
280
     0
102
RTVSPost2010PropOp32
 70
     1
102
RTVSPost2010Prop33
280
     0
102
RTVSPost2010PropOp33
 70
     1
102
RTVSPost2010Prop34
280
     0
102
RTVSPost2010PropOp34
 70
     1
102
RTVSPost2010Prop35
280
     0
102
RTVSPost2010PropOp35
 70
     1
102
RTVSPost2010Prop36
280
     0
102
RTVSPost2010PropOp36
 70
     1
102
RTVSPost2010Prop37
 90
       50
102
RTVSPost2010PropOp37
 70
     0
102
RTVSPost2010Prop38
140
0.0
102
RTVSPost2010PropOp38
 70
     0
102
RTVSPost2010Prop39
140
1.0
102
RTVSPost2010PropOp39
 70
     0
102
RTVSPost2010Prop40
 90
        0
102
RTVSPost2010PropOp40
 70
     0
102
RTVSPost2010Prop41ColorIndex
 90
       18
102
RTVSPost2010Prop41ColorRGB
 90
        0
102
RTVSPost2010PropOp41
 70
     0
102
RTVSPost2010Prop42
 90
       50
102
RTVSPost2010PropOp42
 70
     0
102
RTVSPost2010Prop43
 90
        3
102
RTVSPost2010PropOp43
 70
     0
102
RTVSPost2010Prop44ColorIndex
 90
        5
102
RTVSPost2010Prop44ColorRGB
 90
      255
102
RTVSPost2010PropOp44
 70
     0
102
RTVSPost2010Prop45
280
     0
102
RTVSPost2010PropOp45
 70
     1
102
RTVSPost2010Prop46
 90
       50
102
RTVSPost2010PropOp46
 70
     0
102
RTVSPost2010Prop47
 90
       50
102
RTVSPost2010PropOp47
 70
     0
102
RTVSPost2010Prop48
 90
       50
102
RTVSPost2010PropOp48
 70
     0
102
RTVSPost2010Prop49
280
     0
102
RTVSPost2010PropOp49
 70
     1
102
RTVSPost2010Prop50
 90
       50
102
RTVSPost2010PropOp50
 70
     0
102
RTVSPost2010Prop51ColorIndex
 90
      256
102
RTVSPost2010Prop51ColorRGB
 90
-16777216
102
RTVSPost2010PropOp51
 70
     0
102
RTVSPost2010Prop52
140
1.0
102
RTVSPost2010PropOp52
 70
     0
102
RTVSPost2010Prop53
 90
        2
102
RTVSPost2010PropOp53
 70
     0
102
RTVSPost2010Prop54
  1
strokes_ogs.tif
102
RTVSPost2010PropOp54
 70
     0
102
RTVSPost2010Prop55
280
     0
102
RTVSPost2010PropOp55
 70
     1
102
RTVSPost2010Prop56
140
1.0
102
RTVSPost2010PropOp56
 70
     0
102
RTVSPost2010Prop57
140
1.0
102
RTVSPost2010PropOp57
 70
     0
102
RTVSPropertyOp0
 70
     0
102
RTVSPropertyOp1
 70
     0
102
RTVSPropertyOp2
 70
     0
102
RTVSPropertyOp3
 70
     0
102
RTVSPropertyOp4
 70
     0
102
RTVSPropertyOp5
 70
     0
102
RTVSPropertyOp6
 70
     0
102
RTVSPropertyOp7
 70
     0
102
RTVSPropertyOp8
 70
     0
102
RTVSPropertyOp9
 70
     0
102
RTVSPropertyOp10
 70
     0
102
RTVSPropertyOp11
 70
     0
102
RTVSPropertyOp12
 70
     0
102
RTVSPropertyOp13
 70
     0
102
RTVSPropertyOp14
 70
     2
102
RTVSPropertyOp15
 70
     0
102
RTVSPropertyOp16
 70
     0
102
RTVSPropertyOp17
 70
     0
102
RTVSPropertyOp18
 70
     0
102
RTVSPropertyOp19
 70
     0
102
RTVSPropertyOp20
 70
     0
102
RTVSPropertyOp21
 70
     0
102
RTVSPropertyOp22
 70
     0
102
RTVSPropertyOp23
 70
     0
102
RTVSPropertyOp24
 70
     0
102
RTVSPropertyOp25
 70
     0
102
RTVSPropertyOp26
 70
     0
102
RTVSPropertyOp27
 70
     0
102
RTVSPropertyOp28
 70
     1
102
RTVSPropertyOp29
 70
     1
102
RTVSPropertyOp30
 70
     1
102
RTVSPropertyOp31
 70
     1
102
RTVSPropertyOp32
 70
     1
102
RTVSPropertyOp33
 70
     1
102
RTVSPropertyOp34
 70
     1
102
RTVSPropertyOp35
 70
     1
102
RTVSPropertyOp36
 70
     1
102
RTVSPropertyOp37
 70
     0
102
RTVSPropertyOp38
 70
     0
102
RTVSPropertyOp39
 70
     0
102
RTVSPropertyOp40
 70
     0
102
RTVSPropertyOp41
 70
     0
102
RTVSPropertyOp42
 70
     0
102
RTVSPropertyOp43
 70
     0
102
RTVSPropertyOp44
 70
     0
102
RTVSPropertyOp45
 70
     1
102
RTVSPropertyOp46
 70
     0
102
RTVSPropertyOp47
 70
     0
102
RTVSPropertyOp48
 70
     0
102
RTVSPropertyOp49
 70
     1
102
RTVSPropertyOp50
 70
     0
102
RTVSPropertyOp51
 70
     0
102
RTVSPropertyOp52
 70
     0
102
RTVSPropertyOp53
 70
     0
102
RTVSPropertyOp54
 70
     0
102
RTVSPropertyOp55
 70
     1
102
RTVSPropertyOp56
 70
     0
102
RTVSPropertyOp57
 70
     0
102
RTVSPropertyOp58
 70
     0
102
RTVSPropertyOp59
 70
     0
102
RTVSPropertyOp60
 70
     0
102
RTVSPropertyOp61
 70
     0
102
RTVSPropertyOp62
 70
     0
  0
XRECORD
  5
49B
102
{ACAD_REACTORS
330
49A
102
}
330
49A
100
AcDbXrecord
280
     1
102
RTVSPost2010Prop28
280
     0
102
RTVSPost2010PropOp28
 70
     1
102
RTVSPost2010Prop29
280
     1
102
RTVSPost2010PropOp29
 70
     1
102
RTVSPost2010Prop30
280
     1
102
RTVSPost2010PropOp30
 70
     1
102
RTVSPost2010Prop31
280
     0
102
RTVSPost2010PropOp31
 70
     1
102
RTVSPost2010Prop32
280
     0
102
RTVSPost2010PropOp32
 70
     1
102
RTVSPost2010Prop33
280
     0
102
RTVSPost2010PropOp33
 70
     1
102
RTVSPost2010Prop34
280
     0
102
RTVSPost2010PropOp34
 70
     1
102
RTVSPost2010Prop35
280
     0
102
RTVSPost2010PropOp35
 70
     1
102
RTVSPost2010Prop36
280
     0
102
RTVSPost2010PropOp36
 70
     1
102
RTVSPost2010Prop37
 90
       50
102
RTVSPost2010PropOp37
 70
     1
102
RTVSPost2010Prop38
140
0.0
102
RTVSPost2010PropOp38
 70
     1
102
RTVSPost2010Prop39
140
1.0
102
RTVSPost2010PropOp39
 70
     1
102
RTVSPost2010Prop40
 90
        0
102
RTVSPost2010PropOp40
 70
     1
102
RTVSPost2010Prop41ColorIndex
 90
       18
102
RTVSPost2010Prop41ColorRGB
 90
        0
102
RTVSPost2010PropOp41
 70
     1
102
RTVSPost2010Prop42
 90
       50
102
RTVSPost2010PropOp42
 70
     1
102
RTVSPost2010Prop43
 90
        3
102
RTVSPost2010PropOp43
 70
     1
102
RTVSPost2010Prop44ColorIndex
 90
        5
102
RTVSPost2010Prop44ColorRGB
 90
      255
102
RTVSPost2010PropOp44
 70
     1
102
RTVSPost2010Prop45
280
     0
102
RTVSPost2010PropOp45
 70
     1
102
RTVSPost2010Prop46
 90
       50
102
RTVSPost2010PropOp46
 70
     1
102
RTVSPost2010Prop47
 90
       50
102
RTVSPost2010PropOp47
 70
     1
102
RTVSPost2010Prop48
 90
       50
102
RTVSPost2010PropOp48
 70
     1
102
RTVSPost2010Prop49
280
     0
102
RTVSPost2010PropOp49
 70
     1
102
RTVSPost2010Prop50
 90
       50
102
RTVSPost2010PropOp50
 70
     1
102
RTVSPost2010Prop51ColorIndex
 90
      256
102
RTVSPost2010Prop51ColorRGB
 90
-16777216
102
RTVSPost2010PropOp51
 70
     0
102
RTVSPost2010Prop52
140
1.0
102
RTVSPost2010PropOp52
 70
     0
102
RTVSPost2010Prop53
 90
        2
102
RTVSPost2010PropOp53
 70
     1
102
RTVSPost2010Prop54
  1
strokes_ogs.tif
102
RTVSPost2010PropOp54
 70
     1
102
RTVSPost2010Prop55
280
     0
102
RTVSPost2010PropOp55
 70
     1
102
RTVSPost2010Prop56
140
1.0
102
RTVSPost2010PropOp56
 70
     1
102
RTVSPost2010Prop57
140
1.0
102
RTVSPost2010PropOp57
 70
     1
102
RTVSPropertyOp0
 70
     1
102
RTVSPropertyOp1
 70
     1
102
RTVSPropertyOp2
 70
     1
102
RTVSPropertyOp3
 70
     1
102
RTVSPropertyOp4
 70
     1
102
RTVSPropertyOp5
 70
     1
102
RTVSPropertyOp6
 70
     1
102
RTVSPropertyOp7
 70
     1
102
RTVSPropertyOp8
 70
     1
102
RTVSPropertyOp9
 70
     1
102
RTVSPropertyOp10
 70
     1
102
RTVSPropertyOp11
 70
     1
102
RTVSPropertyOp12
 70
     1
102
RTVSPropertyOp13
 70
     1
102
RTVSPropertyOp14
 70
     1
102
RTVSPropertyOp15
 70
     1
102
RTVSPropertyOp16
 70
     1
102
RTVSPropertyOp17
 70
     1
102
RTVSPropertyOp18
 70
     1
102
RTVSPropertyOp19
 70
     1
102
RTVSPropertyOp20
 70
     1
102
RTVSPropertyOp21
 70
     1
102
RTVSPropertyOp22
 70
     1
102
RTVSPropertyOp23
 70
     1
102
RTVSPropertyOp24
 70
     1
102
RTVSPropertyOp25
 70
     1
102
RTVSPropertyOp26
 70
     1
102
RTVSPropertyOp27
 70
     1
102
RTVSPropertyOp28
 70
     1
102
RTVSPropertyOp29
 70
     1
102
RTVSPropertyOp30
 70
     1
102
RTVSPropertyOp31
 70
     1
102
RTVSPropertyOp32
 70
     1
102
RTVSPropertyOp33
 70
     1
102
RTVSPropertyOp34
 70
     1
102
RTVSPropertyOp35
 70
     1
102
RTVSPropertyOp36
 70
     1
102
RTVSPropertyOp37
 70
     1
102
RTVSPropertyOp38
 70
     1
102
RTVSPropertyOp39
 70
     1
102
RTVSPropertyOp40
 70
     1
102
RTVSPropertyOp41
 70
     1
102
RTVSPropertyOp42
 70
     1
102
RTVSPropertyOp43
 70
     1
102
RTVSPropertyOp44
 70
     1
102
RTVSPropertyOp45
 70
     1
102
RTVSPropertyOp46
 70
     1
102
RTVSPropertyOp47
 70
     1
102
RTVSPropertyOp48
 70
     1
102
RTVSPropertyOp49
 70
     1
102
RTVSPropertyOp50
 70
     1
102
RTVSPropertyOp51
 70
     0
102
RTVSPropertyOp52
 70
     0
102
RTVSPropertyOp53
 70
     1
102
RTVSPropertyOp54
 70
     1
102
RTVSPropertyOp55
 70
     1
102
RTVSPropertyOp56
 70
     1
102
RTVSPropertyOp57
 70
     1
102
RTVSPropertyOp58
 70
     1
102
RTVSPropertyOp59
 70
     1
102
RTVSPropertyOp60
 70
     1
102
RTVSPropertyOp61
 70
     1
102
RTVSPropertyOp62
 70
     1
  0
XRECORD
  5
47F
102
{ACAD_REACTORS
330
47E
102
}
330
47E
100
AcDbXrecord
280
     1
102
RTVSPost2010Prop28
280
     0
102
RTVSPost2010PropOp28
 70
     1
102
RTVSPost2010Prop29
280
     1
102
RTVSPost2010PropOp29
 70
     1
102
RTVSPost2010Prop30
280
     1
102
RTVSPost2010PropOp30
 70
     1
102
RTVSPost2010Prop31
280
     0
102
RTVSPost2010PropOp31
 70
     1
102
RTVSPost2010Prop32
280
     0
102
RTVSPost2010PropOp32
 70
     1
102
RTVSPost2010Prop33
280
     0
102
RTVSPost2010PropOp33
 70
     1
102
RTVSPost2010Prop34
280
     0
102
RTVSPost2010PropOp34
 70
     1
102
RTVSPost2010Prop35
280
     0
102
RTVSPost2010PropOp35
 70
     1
102
RTVSPost2010Prop36
280
     0
102
RTVSPost2010PropOp36
 70
     1
102
RTVSPost2010Prop37
 90
       50
102
RTVSPost2010PropOp37
 70
     1
102
RTVSPost2010Prop38
140
0.0
102
RTVSPost2010PropOp38
 70
     1
102
RTVSPost2010Prop39
140
1.0
102
RTVSPost2010PropOp39
 70
     1
102
RTVSPost2010Prop40
 90
        0
102
RTVSPost2010PropOp40
 70
     1
102
RTVSPost2010Prop41ColorIndex
 90
       18
102
RTVSPost2010Prop41ColorRGB
 90
        0
102
RTVSPost2010PropOp41
 70
     1
102
RTVSPost2010Prop42
 90
       50
102
RTVSPost2010PropOp42
 70
     1
102
RTVSPost2010Prop43
 90
        3
102
RTVSPost2010PropOp43
 70
     1
102
RTVSPost2010Prop44ColorIndex
 90
        5
102
RTVSPost2010Prop44ColorRGB
 90
      255
102
RTVSPost2010PropOp44
 70
     1
102
RTVSPost2010Prop45
280
     0
102
RTVSPost2010PropOp45
 70
     1
102
RTVSPost2010Prop46
 90
       50
102
RTVSPost2010PropOp46
 70
     1
102
RTVSPost2010Prop47
 90
       50
102
RTVSPost2010PropOp47
 70
     1
102
RTVSPost2010Prop48
 90
       50
102
RTVSPost2010PropOp48
 70
     1
102
RTVSPost2010Prop49
280
     0
102
RTVSPost2010PropOp49
 70
     1
102
RTVSPost2010Prop50
 90
       50
102
RTVSPost2010PropOp50
 70
     1
102
RTVSPost2010Prop51ColorIndex
 90
      256
102
RTVSPost2010Prop51ColorRGB
 90
-16777216
102
RTVSPost2010PropOp51
 70
     0
102
RTVSPost2010Prop52
140
1.0
102
RTVSPost2010PropOp52
 70
     0
102
RTVSPost2010Prop53
 90
        2
102
RTVSPost2010PropOp53
 70
     1
102
RTVSPost2010Prop54
  1
strokes_ogs.tif
102
RTVSPost2010PropOp54
 70
     1
102
RTVSPost2010Prop55
280
     0
102
RTVSPost2010PropOp55
 70
     1
102
RTVSPost2010Prop56
140
1.0
102
RTVSPost2010PropOp56
 70
     1
102
RTVSPost2010Prop57
140
1.0
102
RTVSPost2010PropOp57
 70
     1
102
RTVSPropertyOp0
 70
     1
102
RTVSPropertyOp1
 70
     1
102
RTVSPropertyOp2
 70
     1
102
RTVSPropertyOp3
 70
     1
102
RTVSPropertyOp4
 70
     1
102
RTVSPropertyOp5
 70
     1
102
RTVSPropertyOp6
 70
     1
102
RTVSPropertyOp7
 70
     1
102
RTVSPropertyOp8
 70
     1
102
RTVSPropertyOp9
 70
     1
102
RTVSPropertyOp10
 70
     1
102
RTVSPropertyOp11
 70
     1
102
RTVSPropertyOp12
 70
     1
102
RTVSPropertyOp13
 70
     1
102
RTVSPropertyOp14
 70
     1
102
RTVSPropertyOp15
 70
     1
102
RTVSPropertyOp16
 70
     1
102
RTVSPropertyOp17
 70
     1
102
RTVSPropertyOp18
 70
     1
102
RTVSPropertyOp19
 70
     1
102
RTVSPropertyOp20
 70
     1
102
RTVSPropertyOp21
 70
     1
102
RTVSPropertyOp22
 70
     1
102
RTVSPropertyOp23
 70
     1
102
RTVSPropertyOp24
 70
     1
102
RTVSPropertyOp25
 70
     1
102
RTVSPropertyOp26
 70
     1
102
RTVSPropertyOp27
 70
     1
102
RTVSPropertyOp28
 70
     1
102
RTVSPropertyOp29
 70
     1
102
RTVSPropertyOp30
 70
     1
102
RTVSPropertyOp31
 70
     1
102
RTVSPropertyOp32
 70
     1
102
RTVSPropertyOp33
 70
     1
102
RTVSPropertyOp34
 70
     1
102
RTVSPropertyOp35
 70
     1
102
RTVSPropertyOp36
 70
     1
102
RTVSPropertyOp37
 70
     1
102
RTVSPropertyOp38
 70
     1
102
RTVSPropertyOp39
 70
     1
102
RTVSPropertyOp40
 70
     1
102
RTVSPropertyOp41
 70
     1
102
RTVSPropertyOp42
 70
     1
102
RTVSPropertyOp43
 70
     1
102
RTVSPropertyOp44
 70
     1
102
RTVSPropertyOp45
 70
     1
102
RTVSPropertyOp46
 70
     1
102
RTVSPropertyOp47
 70
     1
102
RTVSPropertyOp48
 70
     1
102
RTVSPropertyOp49
 70
     1
102
RTVSPropertyOp50
 70
     1
102
RTVSPropertyOp51
 70
     0
102
RTVSPropertyOp52
 70
     0
102
RTVSPropertyOp53
 70
     1
102
RTVSPropertyOp54
 70
     1
102
RTVSPropertyOp55
 70
     1
102
RTVSPropertyOp56
 70
     1
102
RTVSPropertyOp57
 70
     1
102
RTVSPropertyOp58
 70
     1
102
RTVSPropertyOp59
 70
     1
102
RTVSPropertyOp60
 70
     1
102
RTVSPropertyOp61
 70
     1
102
RTVSPropertyOp62
 70
     1
  0
XRECORD
  5
481
102
{ACAD_REACTORS
330
480
102
}
330
480
100
AcDbXrecord
280
     1
102
RTVSPost2010Prop28
280
     0
102
RTVSPost2010PropOp28
 70
     1
102
RTVSPost2010Prop29
280
     1
102
RTVSPost2010PropOp29
 70
     1
102
RTVSPost2010Prop30
280
     1
102
RTVSPost2010PropOp30
 70
     1
102
RTVSPost2010Prop31
280
     0
102
RTVSPost2010PropOp31
 70
     1
102
RTVSPost2010Prop32
280
     0
102
RTVSPost2010PropOp32
 70
     1
102
RTVSPost2010Prop33
280
     0
102
RTVSPost2010PropOp33
 70
     1
102
RTVSPost2010Prop34
280
     0
102
RTVSPost2010PropOp34
 70
     1
102
RTVSPost2010Prop35
280
     0
102
RTVSPost2010PropOp35
 70
     1
102
RTVSPost2010Prop36
280
     0
102
RTVSPost2010PropOp36
 70
     1
102
RTVSPost2010Prop37
 90
       50
102
RTVSPost2010PropOp37
 70
     1
102
RTVSPost2010Prop38
140
0.0
102
RTVSPost2010PropOp38
 70
     1
102
RTVSPost2010Prop39
140
1.0
102
RTVSPost2010PropOp39
 70
     1
102
RTVSPost2010Prop40
 90
        0
102
RTVSPost2010PropOp40
 70
     1
102
RTVSPost2010Prop41ColorIndex
 90
       18
102
RTVSPost2010Prop41ColorRGB
 90
        0
102
RTVSPost2010PropOp41
 70
     1
102
RTVSPost2010Prop42
 90
       50
102
RTVSPost2010PropOp42
 70
     1
102
RTVSPost2010Prop43
 90
        3
102
RTVSPost2010PropOp43
 70
     1
102
RTVSPost2010Prop44ColorIndex
 90
        5
102
RTVSPost2010Prop44ColorRGB
 90
      255
102
RTVSPost2010PropOp44
 70
     1
102
RTVSPost2010Prop45
280
     0
102
RTVSPost2010PropOp45
 70
     1
102
RTVSPost2010Prop46
 90
       50
102
RTVSPost2010PropOp46
 70
     1
102
RTVSPost2010Prop47
 90
       50
102
RTVSPost2010PropOp47
 70
     1
102
RTVSPost2010Prop48
 90
       50
102
RTVSPost2010PropOp48
 70
     1
102
RTVSPost2010Prop49
280
     0
102
RTVSPost2010PropOp49
 70
     1
102
RTVSPost2010Prop50
 90
       50
102
RTVSPost2010PropOp50
 70
     1
102
RTVSPost2010Prop51ColorIndex
 90
      256
102
RTVSPost2010Prop51ColorRGB
 90
-16777216
102
RTVSPost2010PropOp51
 70
     0
102
RTVSPost2010Prop52
140
1.0
102
RTVSPost2010PropOp52
 70
     0
102
RTVSPost2010Prop53
 90
        2
102
RTVSPost2010PropOp53
 70
     1
102
RTVSPost2010Prop54
  1
strokes_ogs.tif
102
RTVSPost2010PropOp54
 70
     1
102
RTVSPost2010Prop55
280
     0
102
RTVSPost2010PropOp55
 70
     1
102
RTVSPost2010Prop56
140
1.0
102
RTVSPost2010PropOp56
 70
     1
102
RTVSPost2010Prop57
140
1.0
102
RTVSPost2010PropOp57
 70
     1
102
RTVSPropertyOp0
 70
     1
102
RTVSPropertyOp1
 70
     1
102
RTVSPropertyOp2
 70
     1
102
RTVSPropertyOp3
 70
     1
102
RTVSPropertyOp4
 70
     1
102
RTVSPropertyOp5
 70
     1
102
RTVSPropertyOp6
 70
     1
102
RTVSPropertyOp7
 70
     1
102
RTVSPropertyOp8
 70
     1
102
RTVSPropertyOp9
 70
     1
102
RTVSPropertyOp10
 70
     1
102
RTVSPropertyOp11
 70
     1
102
RTVSPropertyOp12
 70
     1
102
RTVSPropertyOp13
 70
     1
102
RTVSPropertyOp14
 70
     1
102
RTVSPropertyOp15
 70
     1
102
RTVSPropertyOp16
 70
     1
102
RTVSPropertyOp17
 70
     1
102
RTVSPropertyOp18
 70
     1
102
RTVSPropertyOp19
 70
     1
102
RTVSPropertyOp20
 70
     1
102
RTVSPropertyOp21
 70
     1
102
RTVSPropertyOp22
 70
     1
102
RTVSPropertyOp23
 70
     1
102
RTVSPropertyOp24
 70
     1
102
RTVSPropertyOp25
 70
     1
102
RTVSPropertyOp26
 70
     1
102
RTVSPropertyOp27
 70
     1
102
RTVSPropertyOp28
 70
     1
102
RTVSPropertyOp29
 70
     1
102
RTVSPropertyOp30
 70
     1
102
RTVSPropertyOp31
 70
     1
102
RTVSPropertyOp32
 70
     1
102
RTVSPropertyOp33
 70
     1
102
RTVSPropertyOp34
 70
     1
102
RTVSPropertyOp35
 70
     1
102
RTVSPropertyOp36
 70
     1
102
RTVSPropertyOp37
 70
     1
102
RTVSPropertyOp38
 70
     1
102
RTVSPropertyOp39
 70
     1
102
RTVSPropertyOp40
 70
     1
102
RTVSPropertyOp41
 70
     1
102
RTVSPropertyOp42
 70
     1
102
RTVSPropertyOp43
 70
     1
102
RTVSPropertyOp44
 70
     1
102
RTVSPropertyOp45
 70
     1
102
RTVSPropertyOp46
 70
     1
102
RTVSPropertyOp47
 70
     1
102
RTVSPropertyOp48
 70
     1
102
RTVSPropertyOp49
 70
     1
102
RTVSPropertyOp50
 70
     1
102
RTVSPropertyOp51
 70
     0
102
RTVSPropertyOp52
 70
     0
102
RTVSPropertyOp53
 70
     1
102
RTVSPropertyOp54
 70
     1
102
RTVSPropertyOp55
 70
     1
102
RTVSPropertyOp56
 70
     1
102
RTVSPropertyOp57
 70
     1
102
RTVSPropertyOp58
 70
     1
102
RTVSPropertyOp59
 70
     1
102
RTVSPropertyOp60
 70
     1
102
RTVSPropertyOp61
 70
     1
102
RTVSPropertyOp62
 70
     1
  0
XRECORD
  5
483
102
{ACAD_REACTORS
330
482
102
}
330
482
100
AcDbXrecord
280
     1
102
RTVSPost2010Prop28
280
     0
102
RTVSPost2010PropOp28
 70
     1
102
RTVSPost2010Prop29
280
     1
102
RTVSPost2010PropOp29
 70
     1
102
RTVSPost2010Prop30
280
     1
102
RTVSPost2010PropOp30
 70
     1
102
RTVSPost2010Prop31
280
     0
102
RTVSPost2010PropOp31
 70
     1
102
RTVSPost2010Prop32
280
     0
102
RTVSPost2010PropOp32
 70
     1
102
RTVSPost2010Prop33
280
     0
102
RTVSPost2010PropOp33
 70
     1
102
RTVSPost2010Prop34
280
     0
102
RTVSPost2010PropOp34
 70
     1
102
RTVSPost2010Prop35
280
     0
102
RTVSPost2010PropOp35
 70
     1
102
RTVSPost2010Prop36
280
     0
102
RTVSPost2010PropOp36
 70
     1
102
RTVSPost2010Prop37
 90
       50
102
RTVSPost2010PropOp37
 70
     1
102
RTVSPost2010Prop38
140
0.0
102
RTVSPost2010PropOp38
 70
     1
102
RTVSPost2010Prop39
140
1.0
102
RTVSPost2010PropOp39
 70
     1
102
RTVSPost2010Prop40
 90
        0
102
RTVSPost2010PropOp40
 70
     1
102
RTVSPost2010Prop41ColorIndex
 90
       18
102
RTVSPost2010Prop41ColorRGB
 90
        0
102
RTVSPost2010PropOp41
 70
     1
102
RTVSPost2010Prop42
 90
       50
102
RTVSPost2010PropOp42
 70
     1
102
RTVSPost2010Prop43
 90
        3
102
RTVSPost2010PropOp43
 70
     1
102
RTVSPost2010Prop44ColorIndex
 90
        5
102
RTVSPost2010Prop44ColorRGB
 90
      255
102
RTVSPost2010PropOp44
 70
     1
102
RTVSPost2010Prop45
280
     0
102
RTVSPost2010PropOp45
 70
     1
102
RTVSPost2010Prop46
 90
       50
102
RTVSPost2010PropOp46
 70
     1
102
RTVSPost2010Prop47
 90
       50
102
RTVSPost2010PropOp47
 70
     1
102
RTVSPost2010Prop48
 90
       50
102
RTVSPost2010PropOp48
 70
     1
102
RTVSPost2010Prop49
280
     0
102
RTVSPost2010PropOp49
 70
     1
102
RTVSPost2010Prop50
 90
       50
102
RTVSPost2010PropOp50
 70
     1
102
RTVSPost2010Prop51ColorIndex
 90
      256
102
RTVSPost2010Prop51ColorRGB
 90
-16777216
102
RTVSPost2010PropOp51
 70
     0
102
RTVSPost2010Prop52
140
1.0
102
RTVSPost2010PropOp52
 70
     0
102
RTVSPost2010Prop53
 90
        2
102
RTVSPost2010PropOp53
 70
     1
102
RTVSPost2010Prop54
  1
strokes_ogs.tif
102
RTVSPost2010PropOp54
 70
     1
102
RTVSPost2010Prop55
280
     0
102
RTVSPost2010PropOp55
 70
     1
102
RTVSPost2010Prop56
140
1.0
102
RTVSPost2010PropOp56
 70
     1
102
RTVSPost2010Prop57
140
1.0
102
RTVSPost2010PropOp57
 70
     1
102
RTVSPropertyOp0
 70
     1
102
RTVSPropertyOp1
 70
     1
102
RTVSPropertyOp2
 70
     1
102
RTVSPropertyOp3
 70
     1
102
RTVSPropertyOp4
 70
     1
102
RTVSPropertyOp5
 70
     1
102
RTVSPropertyOp6
 70
     1
102
RTVSPropertyOp7
 70
     1
102
RTVSPropertyOp8
 70
     1
102
RTVSPropertyOp9
 70
     1
102
RTVSPropertyOp10
 70
     1
102
RTVSPropertyOp11
 70
     1
102
RTVSPropertyOp12
 70
     1
102
RTVSPropertyOp13
 70
     1
102
RTVSPropertyOp14
 70
     1
102
RTVSPropertyOp15
 70
     1
102
RTVSPropertyOp16
 70
     1
102
RTVSPropertyOp17
 70
     1
102
RTVSPropertyOp18
 70
     1
102
RTVSPropertyOp19
 70
     1
102
RTVSPropertyOp20
 70
     1
102
RTVSPropertyOp21
 70
     1
102
RTVSPropertyOp22
 70
     1
102
RTVSPropertyOp23
 70
     1
102
RTVSPropertyOp24
 70
     1
102
RTVSPropertyOp25
 70
     1
102
RTVSPropertyOp26
 70
     1
102
RTVSPropertyOp27
 70
     1
102
RTVSPropertyOp28
 70
     1
102
RTVSPropertyOp29
 70
     1
102
RTVSPropertyOp30
 70
     1
102
RTVSPropertyOp31
 70
     1
102
RTVSPropertyOp32
 70
     1
102
RTVSPropertyOp33
 70
     1
102
RTVSPropertyOp34
 70
     1
102
RTVSPropertyOp35
 70
     1
102
RTVSPropertyOp36
 70
     1
102
RTVSPropertyOp37
 70
     1
102
RTVSPropertyOp38
 70
     1
102
RTVSPropertyOp39
 70
     1
102
RTVSPropertyOp40
 70
     1
102
RTVSPropertyOp41
 70
     1
102
RTVSPropertyOp42
 70
     1
102
RTVSPropertyOp43
 70
     1
102
RTVSPropertyOp44
 70
     1
102
RTVSPropertyOp45
 70
     1
102
RTVSPropertyOp46
 70
     1
102
RTVSPropertyOp47
 70
     1
102
RTVSPropertyOp48
 70
     1
102
RTVSPropertyOp49
 70
     1
102
RTVSPropertyOp50
 70
     1
102
RTVSPropertyOp51
 70
     0
102
RTVSPropertyOp52
 70
     0
102
RTVSPropertyOp53
 70
     1
102
RTVSPropertyOp54
 70
     1
102
RTVSPropertyOp55
 70
     1
102
RTVSPropertyOp56
 70
     1
102
RTVSPropertyOp57
 70
     1
102
RTVSPropertyOp58
 70
     1
102
RTVSPropertyOp59
 70
     1
102
RTVSPropertyOp60
 70
     1
102
RTVSPropertyOp61
 70
     1
102
RTVSPropertyOp62
 70
     1
  0
XRECORD
  5
485
102
{ACAD_REACTORS
330
484
102
}
330
484
100
AcDbXrecord
280
     1
102
RTVSPost2010Prop28
280
     0
102
RTVSPost2010PropOp28
 70
     1
102
RTVSPost2010Prop29
280
     1
102
RTVSPost2010PropOp29
 70
     1
102
RTVSPost2010Prop30
280
     1
102
RTVSPost2010PropOp30
 70
     1
102
RTVSPost2010Prop31
280
     0
102
RTVSPost2010PropOp31
 70
     1
102
RTVSPost2010Prop32
280
     0
102
RTVSPost2010PropOp32
 70
     1
102
RTVSPost2010Prop33
280
     0
102
RTVSPost2010PropOp33
 70
     1
102
RTVSPost2010Prop34
280
     0
102
RTVSPost2010PropOp34
 70
     1
102
RTVSPost2010Prop35
280
     0
102
RTVSPost2010PropOp35
 70
     1
102
RTVSPost2010Prop36
280
     0
102
RTVSPost2010PropOp36
 70
     1
102
RTVSPost2010Prop37
 90
       50
102
RTVSPost2010PropOp37
 70
     1
102
RTVSPost2010Prop38
140
0.0
102
RTVSPost2010PropOp38
 70
     1
102
RTVSPost2010Prop39
140
1.0
102
RTVSPost2010PropOp39
 70
     1
102
RTVSPost2010Prop40
 90
        0
102
RTVSPost2010PropOp40
 70
     1
102
RTVSPost2010Prop41ColorIndex
 90
       18
102
RTVSPost2010Prop41ColorRGB
 90
        0
102
RTVSPost2010PropOp41
 70
     1
102
RTVSPost2010Prop42
 90
       50
102
RTVSPost2010PropOp42
 70
     1
102
RTVSPost2010Prop43
 90
        3
102
RTVSPost2010PropOp43
 70
     1
102
RTVSPost2010Prop44ColorIndex
 90
        5
102
RTVSPost2010Prop44ColorRGB
 90
      255
102
RTVSPost2010PropOp44
 70
     1
102
RTVSPost2010Prop45
280
     0
102
RTVSPost2010PropOp45
 70
     1
102
RTVSPost2010Prop46
 90
       50
102
RTVSPost2010PropOp46
 70
     1
102
RTVSPost2010Prop47
 90
       50
102
RTVSPost2010PropOp47
 70
     1
102
RTVSPost2010Prop48
 90
       50
102
RTVSPost2010PropOp48
 70
     1
102
RTVSPost2010Prop49
280
     0
102
RTVSPost2010PropOp49
 70
     1
102
RTVSPost2010Prop50
 90
       50
102
RTVSPost2010PropOp50
 70
     1
102
RTVSPost2010Prop51ColorIndex
 90
      256
102
RTVSPost2010Prop51ColorRGB
 90
-16777216
102
RTVSPost2010PropOp51
 70
     0
102
RTVSPost2010Prop52
140
1.0
102
RTVSPost2010PropOp52
 70
     0
102
RTVSPost2010Prop53
 90
        2
102
RTVSPost2010PropOp53
 70
     1
102
RTVSPost2010Prop54
  1
strokes_ogs.tif
102
RTVSPost2010PropOp54
 70
     1
102
RTVSPost2010Prop55
280
     0
102
RTVSPost2010PropOp55
 70
     1
102
RTVSPost2010Prop56
140
1.0
102
RTVSPost2010PropOp56
 70
     1
102
RTVSPost2010Prop57
140
1.0
102
RTVSPost2010PropOp57
 70
     1
102
RTVSPropertyOp0
 70
     1
102
RTVSPropertyOp1
 70
     1
102
RTVSPropertyOp2
 70
     1
102
RTVSPropertyOp3
 70
     1
102
RTVSPropertyOp4
 70
     1
102
RTVSPropertyOp5
 70
     1
102
RTVSPropertyOp6
 70
     1
102
RTVSPropertyOp7
 70
     1
102
RTVSPropertyOp8
 70
     1
102
RTVSPropertyOp9
 70
     1
102
RTVSPropertyOp10
 70
     1
102
RTVSPropertyOp11
 70
     1
102
RTVSPropertyOp12
 70
     1
102
RTVSPropertyOp13
 70
     1
102
RTVSPropertyOp14
 70
     1
102
RTVSPropertyOp15
 70
     1
102
RTVSPropertyOp16
 70
     1
102
RTVSPropertyOp17
 70
     1
102
RTVSPropertyOp18
 70
     1
102
RTVSPropertyOp19
 70
     1
102
RTVSPropertyOp20
 70
     1
102
RTVSPropertyOp21
 70
     1
102
RTVSPropertyOp22
 70
     1
102
RTVSPropertyOp23
 70
     1
102
RTVSPropertyOp24
 70
     1
102
RTVSPropertyOp25
 70
     1
102
RTVSPropertyOp26
 70
     1
102
RTVSPropertyOp27
 70
     1
102
RTVSPropertyOp28
 70
     1
102
RTVSPropertyOp29
 70
     1
102
RTVSPropertyOp30
 70
     1
102
RTVSPropertyOp31
 70
     1
102
RTVSPropertyOp32
 70
     1
102
RTVSPropertyOp33
 70
     1
102
RTVSPropertyOp34
 70
     1
102
RTVSPropertyOp35
 70
     1
102
RTVSPropertyOp36
 70
     1
102
RTVSPropertyOp37
 70
     1
102
RTVSPropertyOp38
 70
     1
102
RTVSPropertyOp39
 70
     1
102
RTVSPropertyOp40
 70
     1
102
RTVSPropertyOp41
 70
     1
102
RTVSPropertyOp42
 70
     1
102
RTVSPropertyOp43
 70
     1
102
RTVSPropertyOp44
 70
     1
102
RTVSPropertyOp45
 70
     1
102
RTVSPropertyOp46
 70
     1
102
RTVSPropertyOp47
 70
     1
102
RTVSPropertyOp48
 70
     1
102
RTVSPropertyOp49
 70
     1
102
RTVSPropertyOp50
 70
     1
102
RTVSPropertyOp51
 70
     0
102
RTVSPropertyOp52
 70
     0
102
RTVSPropertyOp53
 70
     1
102
RTVSPropertyOp54
 70
     1
102
RTVSPropertyOp55
 70
     1
102
RTVSPropertyOp56
 70
     1
102
RTVSPropertyOp57
 70
     1
102
RTVSPropertyOp58
 70
     1
102
RTVSPropertyOp59
 70
     1
102
RTVSPropertyOp60
 70
     1
102
RTVSPropertyOp61
 70
     1
102
RTVSPropertyOp62
 70
     1
  0
XRECORD
  5
48D
102
{ACAD_REACTORS
330
48C
102
}
330
48C
100
AcDbXrecord
280
     1
102
RTVSPost2010Prop28
280
     0
102
RTVSPost2010PropOp28
 70
     1
102
RTVSPost2010Prop29
280
     1
102
RTVSPost2010PropOp29
 70
     1
102
RTVSPost2010Prop30
280
     1
102
RTVSPost2010PropOp30
 70
     1
102
RTVSPost2010Prop31
280
     0
102
RTVSPost2010PropOp31
 70
     1
102
RTVSPost2010Prop32
280
     0
102
RTVSPost2010PropOp32
 70
     1
102
RTVSPost2010Prop33
280
     0
102
RTVSPost2010PropOp33
 70
     1
102
RTVSPost2010Prop34
280
     0
102
RTVSPost2010PropOp34
 70
     1
102
RTVSPost2010Prop35
280
     0
102
RTVSPost2010PropOp35
 70
     1
102
RTVSPost2010Prop36
280
     0
102
RTVSPost2010PropOp36
 70
     1
102
RTVSPost2010Prop37
 90
       50
102
RTVSPost2010PropOp37
 70
     1
102
RTVSPost2010Prop38
140
0.0
102
RTVSPost2010PropOp38
 70
     1
102
RTVSPost2010Prop39
140
1.0
102
RTVSPost2010PropOp39
 70
     1
102
RTVSPost2010Prop40
 90
        0
102
RTVSPost2010PropOp40
 70
     1
102
RTVSPost2010Prop41ColorIndex
 90
       18
102
RTVSPost2010Prop41ColorRGB
 90
        0
102
RTVSPost2010PropOp41
 70
     1
102
RTVSPost2010Prop42
 90
       50
102
RTVSPost2010PropOp42
 70
     1
102
RTVSPost2010Prop43
 90
        3
102
RTVSPost2010PropOp43
 70
     1
102
RTVSPost2010Prop44ColorIndex
 90
        5
102
RTVSPost2010Prop44ColorRGB
 90
      255
102
RTVSPost2010PropOp44
 70
     1
102
RTVSPost2010Prop45
280
     0
102
RTVSPost2010PropOp45
 70
     1
102
RTVSPost2010Prop46
 90
       50
102
RTVSPost2010PropOp46
 70
     1
102
RTVSPost2010Prop47
 90
       50
102
RTVSPost2010PropOp47
 70
     1
102
RTVSPost2010Prop48
 90
       50
102
RTVSPost2010PropOp48
 70
     1
102
RTVSPost2010Prop49
280
     0
102
RTVSPost2010PropOp49
 70
     1
102
RTVSPost2010Prop50
 90
       50
102
RTVSPost2010PropOp50
 70
     1
102
RTVSPost2010Prop51ColorIndex
 90
      256
102
RTVSPost2010Prop51ColorRGB
 90
-16777216
102
RTVSPost2010PropOp51
 70
     0
102
RTVSPost2010Prop52
140
1.0
102
RTVSPost2010PropOp52
 70
     0
102
RTVSPost2010Prop53
 90
        2
102
RTVSPost2010PropOp53
 70
     1
102
RTVSPost2010Prop54
  1
strokes_ogs.tif
102
RTVSPost2010PropOp54
 70
     1
102
RTVSPost2010Prop55
280
     0
102
RTVSPost2010PropOp55
 70
     1
102
RTVSPost2010Prop56
140
1.0
102
RTVSPost2010PropOp56
 70
     1
102
RTVSPost2010Prop57
140
1.0
102
RTVSPost2010PropOp57
 70
     1
102
RTVSPropertyOp0
 70
     1
102
RTVSPropertyOp1
 70
     1
102
RTVSPropertyOp2
 70
     1
102
RTVSPropertyOp3
 70
     1
102
RTVSPropertyOp4
 70
     1
102
RTVSPropertyOp5
 70
     1
102
RTVSPropertyOp6
 70
     1
102
RTVSPropertyOp7
 70
     1
102
RTVSPropertyOp8
 70
     1
102
RTVSPropertyOp9
 70
     1
102
RTVSPropertyOp10
 70
     1
102
RTVSPropertyOp11
 70
     1
102
RTVSPropertyOp12
 70
     1
102
RTVSPropertyOp13
 70
     1
102
RTVSPropertyOp14
 70
     1
102
RTVSPropertyOp15
 70
     1
102
RTVSPropertyOp16
 70
     1
102
RTVSPropertyOp17
 70
     1
102
RTVSPropertyOp18
 70
     1
102
RTVSPropertyOp19
 70
     1
102
RTVSPropertyOp20
 70
     1
102
RTVSPropertyOp21
 70
     1
102
RTVSPropertyOp22
 70
     1
102
RTVSPropertyOp23
 70
     1
102
RTVSPropertyOp24
 70
     1
102
RTVSPropertyOp25
 70
     1
102
RTVSPropertyOp26
 70
     1
102
RTVSPropertyOp27
 70
     1
102
RTVSPropertyOp28
 70
     1
102
RTVSPropertyOp29
 70
     1
102
RTVSPropertyOp30
 70
     1
102
RTVSPropertyOp31
 70
     1
102
RTVSPropertyOp32
 70
     1
102
RTVSPropertyOp33
 70
     1
102
RTVSPropertyOp34
 70
     1
102
RTVSPropertyOp35
 70
     1
102
RTVSPropertyOp36
 70
     1
102
RTVSPropertyOp37
 70
     1
102
RTVSPropertyOp38
 70
     1
102
RTVSPropertyOp39
 70
     1
102
RTVSPropertyOp40
 70
     1
102
RTVSPropertyOp41
 70
     1
102
RTVSPropertyOp42
 70
     1
102
RTVSPropertyOp43
 70
     1
102
RTVSPropertyOp44
 70
     1
102
RTVSPropertyOp45
 70
     1
102
RTVSPropertyOp46
 70
     1
102
RTVSPropertyOp47
 70
     1
102
RTVSPropertyOp48
 70
     1
102
RTVSPropertyOp49
 70
     1
102
RTVSPropertyOp50
 70
     1
102
RTVSPropertyOp51
 70
     0
102
RTVSPropertyOp52
 70
     0
102
RTVSPropertyOp53
 70
     1
102
RTVSPropertyOp54
 70
     1
102
RTVSPropertyOp55
 70
     1
102
RTVSPropertyOp56
 70
     1
102
RTVSPropertyOp57
 70
     1
102
RTVSPropertyOp58
 70
     1
102
RTVSPropertyOp59
 70
     1
102
RTVSPropertyOp60
 70
     1
102
RTVSPropertyOp61
 70
     1
102
RTVSPropertyOp62
 70
     1
  0
XRECORD
  5
4A9
102
{ACAD_REACTORS
330
4A8
102
}
330
4A8
100
AcDbXrecord
280
     1
102
RTVSPost2010Prop28
280
     0
102
RTVSPost2010PropOp28
 70
     1
102
RTVSPost2010Prop29
280
     1
102
RTVSPost2010PropOp29
 70
     1
102
RTVSPost2010Prop30
280
     1
102
RTVSPost2010PropOp30
 70
     1
102
RTVSPost2010Prop31
280
     0
102
RTVSPost2010PropOp31
 70
     1
102
RTVSPost2010Prop32
280
     0
102
RTVSPost2010PropOp32
 70
     1
102
RTVSPost2010Prop33
280
     0
102
RTVSPost2010PropOp33
 70
     1
102
RTVSPost2010Prop34
280
     0
102
RTVSPost2010PropOp34
 70
     1
102
RTVSPost2010Prop35
280
     0
102
RTVSPost2010PropOp35
 70
     1
102
RTVSPost2010Prop36
280
     0
102
RTVSPost2010PropOp36
 70
     1
102
RTVSPost2010Prop37
 90
       50
102
RTVSPost2010PropOp37
 70
     0
102
RTVSPost2010Prop38
140
0.0
102
RTVSPost2010PropOp38
 70
     0
102
RTVSPost2010Prop39
140
1.0
102
RTVSPost2010PropOp39
 70
     0
102
RTVSPost2010Prop40
 90
        0
102
RTVSPost2010PropOp40
 70
     0
102
RTVSPost2010Prop41ColorIndex
 90
       18
102
RTVSPost2010Prop41ColorRGB
 90
        0
102
RTVSPost2010PropOp41
 70
     0
102
RTVSPost2010Prop42
 90
       50
102
RTVSPost2010PropOp42
 70
     0
102
RTVSPost2010Prop43
 90
        3
102
RTVSPost2010PropOp43
 70
     0
102
RTVSPost2010Prop44ColorIndex
 90
        5
102
RTVSPost2010Prop44ColorRGB
 90
      255
102
RTVSPost2010PropOp44
 70
     0
102
RTVSPost2010Prop45
280
     0
102
RTVSPost2010PropOp45
 70
     1
102
RTVSPost2010Prop46
 90
       50
102
RTVSPost2010PropOp46
 70
     0
102
RTVSPost2010Prop47
 90
       50
102
RTVSPost2010PropOp47
 70
     0
102
RTVSPost2010Prop48
 90
       50
102
RTVSPost2010PropOp48
 70
     0
102
RTVSPost2010Prop49
280
     0
102
RTVSPost2010PropOp49
 70
     1
102
RTVSPost2010Prop50
 90
       50
102
RTVSPost2010PropOp50
 70
     0
102
RTVSPost2010Prop51ColorIndex
 90
      256
102
RTVSPost2010Prop51ColorRGB
 90
-16777216
102
RTVSPost2010PropOp51
 70
     0
102
RTVSPost2010Prop52
140
1.0
102
RTVSPost2010PropOp52
 70
     0
102
RTVSPost2010Prop53
 90
        2
102
RTVSPost2010PropOp53
 70
     0
102
RTVSPost2010Prop54
  1
strokes_ogs.tif
102
RTVSPost2010PropOp54
 70
     0
102
RTVSPost2010Prop55
280
     0
102
RTVSPost2010PropOp55
 70
     1
102
RTVSPost2010Prop56
140
1.0
102
RTVSPost2010PropOp56
 70
     0
102
RTVSPost2010Prop57
140
1.0
102
RTVSPost2010PropOp57
 70
     0
102
RTVSPropertyOp0
 70
     0
102
RTVSPropertyOp1
 70
     0
102
RTVSPropertyOp2
 70
     0
102
RTVSPropertyOp3
 70
     0
102
RTVSPropertyOp4
 70
     0
102
RTVSPropertyOp5
 70
     0
102
RTVSPropertyOp6
 70
     0
102
RTVSPropertyOp7
 70
     0
102
RTVSPropertyOp8
 70
     0
102
RTVSPropertyOp9
 70
     0
102
RTVSPropertyOp10
 70
     0
102
RTVSPropertyOp11
 70
     0
102
RTVSPropertyOp12
 70
     0
102
RTVSPropertyOp13
 70
     0
102
RTVSPropertyOp14
 70
     2
102
RTVSPropertyOp15
 70
     0
102
RTVSPropertyOp16
 70
     0
102
RTVSPropertyOp17
 70
     0
102
RTVSPropertyOp18
 70
     0
102
RTVSPropertyOp19
 70
     0
102
RTVSPropertyOp20
 70
     0
102
RTVSPropertyOp21
 70
     0
102
RTVSPropertyOp22
 70
     0
102
RTVSPropertyOp23
 70
     0
102
RTVSPropertyOp24
 70
     0
102
RTVSPropertyOp25
 70
     0
102
RTVSPropertyOp26
 70
     0
102
RTVSPropertyOp27
 70
     0
102
RTVSPropertyOp28
 70
     1
102
RTVSPropertyOp29
 70
     1
102
RTVSPropertyOp30
 70
     1
102
RTVSPropertyOp31
 70
     1
102
RTVSPropertyOp32
 70
     1
102
RTVSPropertyOp33
 70
     1
102
RTVSPropertyOp34
 70
     1
102
RTVSPropertyOp35
 70
     1
102
RTVSPropertyOp36
 70
     1
102
RTVSPropertyOp37
 70
     0
102
RTVSPropertyOp38
 70
     0
102
RTVSPropertyOp39
 70
     0
102
RTVSPropertyOp40
 70
     0
102
RTVSPropertyOp41
 70
     0
102
RTVSPropertyOp42
 70
     0
102
RTVSPropertyOp43
 70
     0
102
RTVSPropertyOp44
 70
     0
102
RTVSPropertyOp45
 70
     1
102
RTVSPropertyOp46
 70
     0
102
RTVSPropertyOp47
 70
     0
102
RTVSPropertyOp48
 70
     0
102
RTVSPropertyOp49
 70
     1
102
RTVSPropertyOp50
 70
     0
102
RTVSPropertyOp51
 70
     0
102
RTVSPropertyOp52
 70
     0
102
RTVSPropertyOp53
 70
     0
102
RTVSPropertyOp54
 70
     0
102
RTVSPropertyOp55
 70
     1
102
RTVSPropertyOp56
 70
     0
102
RTVSPropertyOp57
 70
     0
102
RTVSPropertyOp58
 70
     0
102
RTVSPropertyOp59
 70
     0
102
RTVSPropertyOp60
 70
     0
102
RTVSPropertyOp61
 70
     0
102
RTVSPropertyOp62
 70
     0
  0
XRECORD
  5
499
102
{ACAD_REACTORS
330
498
102
}
330
498
100
AcDbXrecord
280
     1
102
RTVSPost2010Prop28
280
     0
102
RTVSPost2010PropOp28
 70
     1
102
RTVSPost2010Prop29
280
     1
102
RTVSPost2010PropOp29
 70
     1
102
RTVSPost2010Prop30
280
     1
102
RTVSPost2010PropOp30
 70
     1
102
RTVSPost2010Prop31
280
     0
102
RTVSPost2010PropOp31
 70
     1
102
RTVSPost2010Prop32
280
     0
102
RTVSPost2010PropOp32
 70
     1
102
RTVSPost2010Prop33
280
     0
102
RTVSPost2010PropOp33
 70
     1
102
RTVSPost2010Prop34
280
     0
102
RTVSPost2010PropOp34
 70
     1
102
RTVSPost2010Prop35
280
     0
102
RTVSPost2010PropOp35
 70
     1
102
RTVSPost2010Prop36
280
     0
102
RTVSPost2010PropOp36
 70
     1
102
RTVSPost2010Prop37
 90
       50
102
RTVSPost2010PropOp37
 70
     1
102
RTVSPost2010Prop38
140
0.0
102
RTVSPost2010PropOp38
 70
     1
102
RTVSPost2010Prop39
140
1.0
102
RTVSPost2010PropOp39
 70
     1
102
RTVSPost2010Prop40
 90
        0
102
RTVSPost2010PropOp40
 70
     1
102
RTVSPost2010Prop41ColorIndex
 90
       18
102
RTVSPost2010Prop41ColorRGB
 90
        0
102
RTVSPost2010PropOp41
 70
     1
102
RTVSPost2010Prop42
 90
       50
102
RTVSPost2010PropOp42
 70
     1
102
RTVSPost2010Prop43
 90
        3
102
RTVSPost2010PropOp43
 70
     1
102
RTVSPost2010Prop44ColorIndex
 90
        5
102
RTVSPost2010Prop44ColorRGB
 90
      255
102
RTVSPost2010PropOp44
 70
     1
102
RTVSPost2010Prop45
280
     0
102
RTVSPost2010PropOp45
 70
     1
102
RTVSPost2010Prop46
 90
       50
102
RTVSPost2010PropOp46
 70
     1
102
RTVSPost2010Prop47
 90
       50
102
RTVSPost2010PropOp47
 70
     1
102
RTVSPost2010Prop48
 90
       50
102
RTVSPost2010PropOp48
 70
     1
102
RTVSPost2010Prop49
280
     0
102
RTVSPost2010PropOp49
 70
     1
102
RTVSPost2010Prop50
 90
       50
102
RTVSPost2010PropOp50
 70
     1
102
RTVSPost2010Prop51ColorIndex
 90
      256
102
RTVSPost2010Prop51ColorRGB
 90
-16777216
102
RTVSPost2010PropOp51
 70
     0
102
RTVSPost2010Prop52
140
1.0
102
RTVSPost2010PropOp52
 70
     0
102
RTVSPost2010Prop53
 90
        2
102
RTVSPost2010PropOp53
 70
     1
102
RTVSPost2010Prop54
  1
strokes_ogs.tif
102
RTVSPost2010PropOp54
 70
     1
102
RTVSPost2010Prop55
280
     0
102
RTVSPost2010PropOp55
 70
     1
102
RTVSPost2010Prop56
140
1.0
102
RTVSPost2010PropOp56
 70
     1
102
RTVSPost2010Prop57
140
1.0
102
RTVSPost2010PropOp57
 70
     1
102
RTVSPropertyOp0
 70
     1
102
RTVSPropertyOp1
 70
     1
102
RTVSPropertyOp2
 70
     1
102
RTVSPropertyOp3
 70
     1
102
RTVSPropertyOp4
 70
     1
102
RTVSPropertyOp5
 70
     1
102
RTVSPropertyOp6
 70
     1
102
RTVSPropertyOp7
 70
     1
102
RTVSPropertyOp8
 70
     1
102
RTVSPropertyOp9
 70
     1
102
RTVSPropertyOp10
 70
     1
102
RTVSPropertyOp11
 70
     1
102
RTVSPropertyOp12
 70
     1
102
RTVSPropertyOp13
 70
     1
102
RTVSPropertyOp14
 70
     1
102
RTVSPropertyOp15
 70
     1
102
RTVSPropertyOp16
 70
     1
102
RTVSPropertyOp17
 70
     1
102
RTVSPropertyOp18
 70
     1
102
RTVSPropertyOp19
 70
     1
102
RTVSPropertyOp20
 70
     1
102
RTVSPropertyOp21
 70
     1
102
RTVSPropertyOp22
 70
     1
102
RTVSPropertyOp23
 70
     1
102
RTVSPropertyOp24
 70
     1
102
RTVSPropertyOp25
 70
     1
102
RTVSPropertyOp26
 70
     1
102
RTVSPropertyOp27
 70
     1
102
RTVSPropertyOp28
 70
     1
102
RTVSPropertyOp29
 70
     1
102
RTVSPropertyOp30
 70
     1
102
RTVSPropertyOp31
 70
     1
102
RTVSPropertyOp32
 70
     1
102
RTVSPropertyOp33
 70
     1
102
RTVSPropertyOp34
 70
     1
102
RTVSPropertyOp35
 70
     1
102
RTVSPropertyOp36
 70
     1
102
RTVSPropertyOp37
 70
     1
102
RTVSPropertyOp38
 70
     1
102
RTVSPropertyOp39
 70
     1
102
RTVSPropertyOp40
 70
     1
102
RTVSPropertyOp41
 70
     1
102
RTVSPropertyOp42
 70
     1
102
RTVSPropertyOp43
 70
     1
102
RTVSPropertyOp44
 70
     1
102
RTVSPropertyOp45
 70
     1
102
RTVSPropertyOp46
 70
     1
102
RTVSPropertyOp47
 70
     1
102
RTVSPropertyOp48
 70
     1
102
RTVSPropertyOp49
 70
     1
102
RTVSPropertyOp50
 70
     1
102
RTVSPropertyOp51
 70
     0
102
RTVSPropertyOp52
 70
     0
102
RTVSPropertyOp53
 70
     1
102
RTVSPropertyOp54
 70
     1
102
RTVSPropertyOp55
 70
     1
102
RTVSPropertyOp56
 70
     1
102
RTVSPropertyOp57
 70
     1
102
RTVSPropertyOp58
 70
     1
102
RTVSPropertyOp59
 70
     1
102
RTVSPropertyOp60
 70
     1
102
RTVSPropertyOp61
 70
     1
102
RTVSPropertyOp62
 70
     1
  0
XRECORD
  5
4AB
102
{ACAD_REACTORS
330
4AA
102
}
330
4AA
100
AcDbXrecord
280
     1
102
RTVSPost2010Prop28
280
     0
102
RTVSPost2010PropOp28
 70
     1
102
RTVSPost2010Prop29
280
     1
102
RTVSPost2010PropOp29
 70
     1
102
RTVSPost2010Prop30
280
     1
102
RTVSPost2010PropOp30
 70
     1
102
RTVSPost2010Prop31
280
     0
102
RTVSPost2010PropOp31
 70
     1
102
RTVSPost2010Prop32
280
     0
102
RTVSPost2010PropOp32
 70
     1
102
RTVSPost2010Prop33
280
     0
102
RTVSPost2010PropOp33
 70
     1
102
RTVSPost2010Prop34
280
     0
102
RTVSPost2010PropOp34
 70
     1
102
RTVSPost2010Prop35
280
     0
102
RTVSPost2010PropOp35
 70
     1
102
RTVSPost2010Prop36
280
     0
102
RTVSPost2010PropOp36
 70
     1
102
RTVSPost2010Prop37
 90
       50
102
RTVSPost2010PropOp37
 70
     0
102
RTVSPost2010Prop38
140
0.0
102
RTVSPost2010PropOp38
 70
     0
102
RTVSPost2010Prop39
140
1.0
102
RTVSPost2010PropOp39
 70
     0
102
RTVSPost2010Prop40
 90
        0
102
RTVSPost2010PropOp40
 70
     0
102
RTVSPost2010Prop41ColorIndex
 90
       18
102
RTVSPost2010Prop41ColorRGB
 90
        0
102
RTVSPost2010PropOp41
 70
     0
102
RTVSPost2010Prop42
 90
       50
102
RTVSPost2010PropOp42
 70
     0
102
RTVSPost2010Prop43
 90
        3
102
RTVSPost2010PropOp43
 70
     0
102
RTVSPost2010Prop44ColorIndex
 90
        5
102
RTVSPost2010Prop44ColorRGB
 90
      255
102
RTVSPost2010PropOp44
 70
     0
102
RTVSPost2010Prop45
280
     0
102
RTVSPost2010PropOp45
 70
     1
102
RTVSPost2010Prop46
 90
       50
102
RTVSPost2010PropOp46
 70
     0
102
RTVSPost2010Prop47
 90
       50
102
RTVSPost2010PropOp47
 70
     0
102
RTVSPost2010Prop48
 90
       50
102
RTVSPost2010PropOp48
 70
     0
102
RTVSPost2010Prop49
280
     0
102
RTVSPost2010PropOp49
 70
     1
102
RTVSPost2010Prop50
 90
       50
102
RTVSPost2010PropOp50
 70
     0
102
RTVSPost2010Prop51ColorIndex
 90
      256
102
RTVSPost2010Prop51ColorRGB
 90
-16777216
102
RTVSPost2010PropOp51
 70
     0
102
RTVSPost2010Prop52
140
1.0
102
RTVSPost2010PropOp52
 70
     0
102
RTVSPost2010Prop53
 90
        2
102
RTVSPost2010PropOp53
 70
     0
102
RTVSPost2010Prop54
  1
strokes_ogs.tif
102
RTVSPost2010PropOp54
 70
     0
102
RTVSPost2010Prop55
280
     0
102
RTVSPost2010PropOp55
 70
     1
102
RTVSPost2010Prop56
140
1.0
102
RTVSPost2010PropOp56
 70
     0
102
RTVSPost2010Prop57
140
1.0
102
RTVSPost2010PropOp57
 70
     0
102
RTVSPropertyOp0
 70
     0
102
RTVSPropertyOp1
 70
     0
102
RTVSPropertyOp2
 70
     0
102
RTVSPropertyOp3
 70
     0
102
RTVSPropertyOp4
 70
     0
102
RTVSPropertyOp5
 70
     0
102
RTVSPropertyOp6
 70
     0
102
RTVSPropertyOp7
 70
     0
102
RTVSPropertyOp8
 70
     0
102
RTVSPropertyOp9
 70
     0
102
RTVSPropertyOp10
 70
     0
102
RTVSPropertyOp11
 70
     0
102
RTVSPropertyOp12
 70
     0
102
RTVSPropertyOp13
 70
     0
102
RTVSPropertyOp14
 70
     2
102
RTVSPropertyOp15
 70
     0
102
RTVSPropertyOp16
 70
     0
102
RTVSPropertyOp17
 70
     0
102
RTVSPropertyOp18
 70
     0
102
RTVSPropertyOp19
 70
     0
102
RTVSPropertyOp20
 70
     0
102
RTVSPropertyOp21
 70
     0
102
RTVSPropertyOp22
 70
     0
102
RTVSPropertyOp23
 70
     0
102
RTVSPropertyOp24
 70
     0
102
RTVSPropertyOp25
 70
     0
102
RTVSPropertyOp26
 70
     0
102
RTVSPropertyOp27
 70
     0
102
RTVSPropertyOp28
 70
     1
102
RTVSPropertyOp29
 70
     1
102
RTVSPropertyOp30
 70
     1
102
RTVSPropertyOp31
 70
     1
102
RTVSPropertyOp32
 70
     1
102
RTVSPropertyOp33
 70
     1
102
RTVSPropertyOp34
 70
     1
102
RTVSPropertyOp35
 70
     1
102
RTVSPropertyOp36
 70
     1
102
RTVSPropertyOp37
 70
     0
102
RTVSPropertyOp38
 70
     0
102
RTVSPropertyOp39
 70
     0
102
RTVSPropertyOp40
 70
     0
102
RTVSPropertyOp41
 70
     0
102
RTVSPropertyOp42
 70
     0
102
RTVSPropertyOp43
 70
     0
102
RTVSPropertyOp44
 70
     0
102
RTVSPropertyOp45
 70
     1
102
RTVSPropertyOp46
 70
     0
102
RTVSPropertyOp47
 70
     0
102
RTVSPropertyOp48
 70
     0
102
RTVSPropertyOp49
 70
     1
102
RTVSPropertyOp50
 70
     0
102
RTVSPropertyOp51
 70
     0
102
RTVSPropertyOp52
 70
     0
102
RTVSPropertyOp53
 70
     0
102
RTVSPropertyOp54
 70
     0
102
RTVSPropertyOp55
 70
     1
102
RTVSPropertyOp56
 70
     0
102
RTVSPropertyOp57
 70
     0
102
RTVSPropertyOp58
 70
     0
102
RTVSPropertyOp59
 70
     0
102
RTVSPropertyOp60
 70
     0
102
RTVSPropertyOp61
 70
     0
102
RTVSPropertyOp62
 70
     0
  0
XRECORD
  5
491
102
{ACAD_REACTORS
330
490
102
}
330
490
100
AcDbXrecord
280
     1
102
RTVSPost2010Prop28
280
     0
102
RTVSPost2010PropOp28
 70
     1
102
RTVSPost2010Prop29
280
     1
102
RTVSPost2010PropOp29
 70
     1
102
RTVSPost2010Prop30
280
     1
102
RTVSPost2010PropOp30
 70
     1
102
RTVSPost2010Prop31
280
     0
102
RTVSPost2010PropOp31
 70
     1
102
RTVSPost2010Prop32
280
     0
102
RTVSPost2010PropOp32
 70
     1
102
RTVSPost2010Prop33
280
     0
102
RTVSPost2010PropOp33
 70
     1
102
RTVSPost2010Prop34
280
     0
102
RTVSPost2010PropOp34
 70
     1
102
RTVSPost2010Prop35
280
     0
102
RTVSPost2010PropOp35
 70
     1
102
RTVSPost2010Prop36
280
     0
102
RTVSPost2010PropOp36
 70
     1
102
RTVSPost2010Prop37
 90
       50
102
RTVSPost2010PropOp37
 70
     1
102
RTVSPost2010Prop38
140
0.0
102
RTVSPost2010PropOp38
 70
     1
102
RTVSPost2010Prop39
140
1.0
102
RTVSPost2010PropOp39
 70
     1
102
RTVSPost2010Prop40
 90
        0
102
RTVSPost2010PropOp40
 70
     1
102
RTVSPost2010Prop41ColorIndex
 90
       18
102
RTVSPost2010Prop41ColorRGB
 90
        0
102
RTVSPost2010PropOp41
 70
     1
102
RTVSPost2010Prop42
 90
       50
102
RTVSPost2010PropOp42
 70
     1
102
RTVSPost2010Prop43
 90
        3
102
RTVSPost2010PropOp43
 70
     1
102
RTVSPost2010Prop44ColorIndex
 90
        5
102
RTVSPost2010Prop44ColorRGB
 90
      255
102
RTVSPost2010PropOp44
 70
     1
102
RTVSPost2010Prop45
280
     0
102
RTVSPost2010PropOp45
 70
     1
102
RTVSPost2010Prop46
 90
       50
102
RTVSPost2010PropOp46
 70
     1
102
RTVSPost2010Prop47
 90
       50
102
RTVSPost2010PropOp47
 70
     1
102
RTVSPost2010Prop48
 90
       50
102
RTVSPost2010PropOp48
 70
     1
102
RTVSPost2010Prop49
280
     0
102
RTVSPost2010PropOp49
 70
     1
102
RTVSPost2010Prop50
 90
       50
102
RTVSPost2010PropOp50
 70
     1
102
RTVSPost2010Prop51ColorIndex
 90
      256
102
RTVSPost2010Prop51ColorRGB
 90
-16777216
102
RTVSPost2010PropOp51
 70
     0
102
RTVSPost2010Prop52
140
1.0
102
RTVSPost2010PropOp52
 70
     0
102
RTVSPost2010Prop53
 90
        2
102
RTVSPost2010PropOp53
 70
     1
102
RTVSPost2010Prop54
  1
strokes_ogs.tif
102
RTVSPost2010PropOp54
 70
     1
102
RTVSPost2010Prop55
280
     0
102
RTVSPost2010PropOp55
 70
     1
102
RTVSPost2010Prop56
140
1.0
102
RTVSPost2010PropOp56
 70
     1
102
RTVSPost2010Prop57
140
1.0
102
RTVSPost2010PropOp57
 70
     1
102
RTVSPropertyOp0
 70
     1
102
RTVSPropertyOp1
 70
     1
102
RTVSPropertyOp2
 70
     1
102
RTVSPropertyOp3
 70
     1
102
RTVSPropertyOp4
 70
     1
102
RTVSPropertyOp5
 70
     1
102
RTVSPropertyOp6
 70
     1
102
RTVSPropertyOp7
 70
     1
102
RTVSPropertyOp8
 70
     1
102
RTVSPropertyOp9
 70
     1
102
RTVSPropertyOp10
 70
     1
102
RTVSPropertyOp11
 70
     1
102
RTVSPropertyOp12
 70
     1
102
RTVSPropertyOp13
 70
     1
102
RTVSPropertyOp14
 70
     1
102
RTVSPropertyOp15
 70
     1
102
RTVSPropertyOp16
 70
     1
102
RTVSPropertyOp17
 70
     1
102
RTVSPropertyOp18
 70
     1
102
RTVSPropertyOp19
 70
     1
102
RTVSPropertyOp20
 70
     1
102
RTVSPropertyOp21
 70
     1
102
RTVSPropertyOp22
 70
     1
102
RTVSPropertyOp23
 70
     1
102
RTVSPropertyOp24
 70
     1
102
RTVSPropertyOp25
 70
     1
102
RTVSPropertyOp26
 70
     1
102
RTVSPropertyOp27
 70
     1
102
RTVSPropertyOp28
 70
     1
102
RTVSPropertyOp29
 70
     1
102
RTVSPropertyOp30
 70
     1
102
RTVSPropertyOp31
 70
     1
102
RTVSPropertyOp32
 70
     1
102
RTVSPropertyOp33
 70
     1
102
RTVSPropertyOp34
 70
     1
102
RTVSPropertyOp35
 70
     1
102
RTVSPropertyOp36
 70
     1
102
RTVSPropertyOp37
 70
     1
102
RTVSPropertyOp38
 70
     1
102
RTVSPropertyOp39
 70
     1
102
RTVSPropertyOp40
 70
     1
102
RTVSPropertyOp41
 70
     1
102
RTVSPropertyOp42
 70
     1
102
RTVSPropertyOp43
 70
     1
102
RTVSPropertyOp44
 70
     1
102
RTVSPropertyOp45
 70
     1
102
RTVSPropertyOp46
 70
     1
102
RTVSPropertyOp47
 70
     1
102
RTVSPropertyOp48
 70
     1
102
RTVSPropertyOp49
 70
     1
102
RTVSPropertyOp50
 70
     1
102
RTVSPropertyOp51
 70
     0
102
RTVSPropertyOp52
 70
     0
102
RTVSPropertyOp53
 70
     1
102
RTVSPropertyOp54
 70
     1
102
RTVSPropertyOp55
 70
     1
102
RTVSPropertyOp56
 70
     1
102
RTVSPropertyOp57
 70
     1
102
RTVSPropertyOp58
 70
     1
102
RTVSPropertyOp59
 70
     1
102
RTVSPropertyOp60
 70
     1
102
RTVSPropertyOp61
 70
     1
102
RTVSPropertyOp62
 70
     1
  0
XRECORD
  5
4A7
102
{ACAD_REACTORS
330
4A6
102
}
330
4A6
100
AcDbXrecord
280
     1
102
RTVSPost2010Prop28
280
     0
102
RTVSPost2010PropOp28
 70
     1
102
RTVSPost2010Prop29
280
     1
102
RTVSPost2010PropOp29
 70
     1
102
RTVSPost2010Prop30
280
     1
102
RTVSPost2010PropOp30
 70
     1
102
RTVSPost2010Prop31
280
     0
102
RTVSPost2010PropOp31
 70
     1
102
RTVSPost2010Prop32
280
     0
102
RTVSPost2010PropOp32
 70
     1
102
RTVSPost2010Prop33
280
     0
102
RTVSPost2010PropOp33
 70
     1
102
RTVSPost2010Prop34
280
     0
102
RTVSPost2010PropOp34
 70
     1
102
RTVSPost2010Prop35
280
     0
102
RTVSPost2010PropOp35
 70
     1
102
RTVSPost2010Prop36
280
     0
102
RTVSPost2010PropOp36
 70
     1
102
RTVSPost2010Prop37
 90
       50
102
RTVSPost2010PropOp37
 70
     1
102
RTVSPost2010Prop38
140
0.0
102
RTVSPost2010PropOp38
 70
     1
102
RTVSPost2010Prop39
140
1.0
102
RTVSPost2010PropOp39
 70
     1
102
RTVSPost2010Prop40
 90
        0
102
RTVSPost2010PropOp40
 70
     1
102
RTVSPost2010Prop41ColorIndex
 90
       18
102
RTVSPost2010Prop41ColorRGB
 90
        0
102
RTVSPost2010PropOp41
 70
     1
102
RTVSPost2010Prop42
 90
       50
102
RTVSPost2010PropOp42
 70
     1
102
RTVSPost2010Prop43
 90
        3
102
RTVSPost2010PropOp43
 70
     1
102
RTVSPost2010Prop44ColorIndex
 90
        5
102
RTVSPost2010Prop44ColorRGB
 90
      255
102
RTVSPost2010PropOp44
 70
     1
102
RTVSPost2010Prop45
280
     0
102
RTVSPost2010PropOp45
 70
     1
102
RTVSPost2010Prop46
 90
       50
102
RTVSPost2010PropOp46
 70
     1
102
RTVSPost2010Prop47
 90
       50
102
RTVSPost2010PropOp47
 70
     1
102
RTVSPost2010Prop48
 90
       50
102
RTVSPost2010PropOp48
 70
     1
102
RTVSPost2010Prop49
280
     0
102
RTVSPost2010PropOp49
 70
     1
102
RTVSPost2010Prop50
 90
       50
102
RTVSPost2010PropOp50
 70
     1
102
RTVSPost2010Prop51ColorIndex
 90
      256
102
RTVSPost2010Prop51ColorRGB
 90
-16777216
102
RTVSPost2010PropOp51
 70
     0
102
RTVSPost2010Prop52
140
1.0
102
RTVSPost2010PropOp52
 70
     0
102
RTVSPost2010Prop53
 90
        2
102
RTVSPost2010PropOp53
 70
     1
102
RTVSPost2010Prop54
  1
strokes_ogs.tif
102
RTVSPost2010PropOp54
 70
     1
102
RTVSPost2010Prop55
280
     0
102
RTVSPost2010PropOp55
 70
     1
102
RTVSPost2010Prop56
140
1.0
102
RTVSPost2010PropOp56
 70
     1
102
RTVSPost2010Prop57
140
1.0
102
RTVSPost2010PropOp57
 70
     1
102
RTVSPropertyOp0
 70
     1
102
RTVSPropertyOp1
 70
     1
102
RTVSPropertyOp2
 70
     1
102
RTVSPropertyOp3
 70
     1
102
RTVSPropertyOp4
 70
     1
102
RTVSPropertyOp5
 70
     1
102
RTVSPropertyOp6
 70
     1
102
RTVSPropertyOp7
 70
     1
102
RTVSPropertyOp8
 70
     1
102
RTVSPropertyOp9
 70
     1
102
RTVSPropertyOp10
 70
     1
102
RTVSPropertyOp11
 70
     1
102
RTVSPropertyOp12
 70
     1
102
RTVSPropertyOp13
 70
     1
102
RTVSPropertyOp14
 70
     1
102
RTVSPropertyOp15
 70
     1
102
RTVSPropertyOp16
 70
     1
102
RTVSPropertyOp17
 70
     1
102
RTVSPropertyOp18
 70
     1
102
RTVSPropertyOp19
 70
     1
102
RTVSPropertyOp20
 70
     1
102
RTVSPropertyOp21
 70
     1
102
RTVSPropertyOp22
 70
     1
102
RTVSPropertyOp23
 70
     1
102
RTVSPropertyOp24
 70
     1
102
RTVSPropertyOp25
 70
     1
102
RTVSPropertyOp26
 70
     1
102
RTVSPropertyOp27
 70
     1
102
RTVSPropertyOp28
 70
     1
102
RTVSPropertyOp29
 70
     1
102
RTVSPropertyOp30
 70
     1
102
RTVSPropertyOp31
 70
     1
102
RTVSPropertyOp32
 70
     1
102
RTVSPropertyOp33
 70
     1
102
RTVSPropertyOp34
 70
     1
102
RTVSPropertyOp35
 70
     1
102
RTVSPropertyOp36
 70
     1
102
RTVSPropertyOp37
 70
     1
102
RTVSPropertyOp38
 70
     1
102
RTVSPropertyOp39
 70
     1
102
RTVSPropertyOp40
 70
     1
102
RTVSPropertyOp41
 70
     1
102
RTVSPropertyOp42
 70
     1
102
RTVSPropertyOp43
 70
     1
102
RTVSPropertyOp44
 70
     1
102
RTVSPropertyOp45
 70
     1
102
RTVSPropertyOp46
 70
     1
102
RTVSPropertyOp47
 70
     1
102
RTVSPropertyOp48
 70
     1
102
RTVSPropertyOp49
 70
     1
102
RTVSPropertyOp50
 70
     1
102
RTVSPropertyOp51
 70
     0
102
RTVSPropertyOp52
 70
     0
102
RTVSPropertyOp53
 70
     1
102
RTVSPropertyOp54
 70
     1
102
RTVSPropertyOp55
 70
     1
102
RTVSPropertyOp56
 70
     1
102
RTVSPropertyOp57
 70
     1
102
RTVSPropertyOp58
 70
     1
102
RTVSPropertyOp59
 70
     1
102
RTVSPropertyOp60
 70
     1
102
RTVSPropertyOp61
 70
     1
102
RTVSPropertyOp62
 70
     1
  0
XRECORD
  5
4A5
102
{ACAD_REACTORS
330
4A4
102
}
330
4A4
100
AcDbXrecord
280
     1
102
RTVSPost2010Prop28
280
     0
102
RTVSPost2010PropOp28
 70
     1
102
RTVSPost2010Prop29
280
     1
102
RTVSPost2010PropOp29
 70
     1
102
RTVSPost2010Prop30
280
     1
102
RTVSPost2010PropOp30
 70
     1
102
RTVSPost2010Prop31
280
     0
102
RTVSPost2010PropOp31
 70
     1
102
RTVSPost2010Prop32
280
     0
102
RTVSPost2010PropOp32
 70
     1
102
RTVSPost2010Prop33
280
     0
102
RTVSPost2010PropOp33
 70
     1
102
RTVSPost2010Prop34
280
     0
102
RTVSPost2010PropOp34
 70
     1
102
RTVSPost2010Prop35
280
     0
102
RTVSPost2010PropOp35
 70
     1
102
RTVSPost2010Prop36
280
     0
102
RTVSPost2010PropOp36
 70
     1
102
RTVSPost2010Prop37
 90
       50
102
RTVSPost2010PropOp37
 70
     1
102
RTVSPost2010Prop38
140
0.0
102
RTVSPost2010PropOp38
 70
     1
102
RTVSPost2010Prop39
140
1.0
102
RTVSPost2010PropOp39
 70
     1
102
RTVSPost2010Prop40
 90
        0
102
RTVSPost2010PropOp40
 70
     1
102
RTVSPost2010Prop41ColorIndex
 90
       18
102
RTVSPost2010Prop41ColorRGB
 90
        0
102
RTVSPost2010PropOp41
 70
     1
102
RTVSPost2010Prop42
 90
       50
102
RTVSPost2010PropOp42
 70
     1
102
RTVSPost2010Prop43
 90
        3
102
RTVSPost2010PropOp43
 70
     1
102
RTVSPost2010Prop44ColorIndex
 90
        5
102
RTVSPost2010Prop44ColorRGB
 90
      255
102
RTVSPost2010PropOp44
 70
     1
102
RTVSPost2010Prop45
280
     0
102
RTVSPost2010PropOp45
 70
     1
102
RTVSPost2010Prop46
 90
       50
102
RTVSPost2010PropOp46
 70
     1
102
RTVSPost2010Prop47
 90
       50
102
RTVSPost2010PropOp47
 70
     1
102
RTVSPost2010Prop48
 90
       50
102
RTVSPost2010PropOp48
 70
     1
102
RTVSPost2010Prop49
280
     0
102
RTVSPost2010PropOp49
 70
     1
102
RTVSPost2010Prop50
 90
       50
102
RTVSPost2010PropOp50
 70
     1
102
RTVSPost2010Prop51ColorIndex
 90
      256
102
RTVSPost2010Prop51ColorRGB
 90
-16777216
102
RTVSPost2010PropOp51
 70
     0
102
RTVSPost2010Prop52
140
1.0
102
RTVSPost2010PropOp52
 70
     0
102
RTVSPost2010Prop53
 90
        2
102
RTVSPost2010PropOp53
 70
     1
102
RTVSPost2010Prop54
  1
strokes_ogs.tif
102
RTVSPost2010PropOp54
 70
     1
102
RTVSPost2010Prop55
280
     0
102
RTVSPost2010PropOp55
 70
     1
102
RTVSPost2010Prop56
140
1.0
102
RTVSPost2010PropOp56
 70
     1
102
RTVSPost2010Prop57
140
1.0
102
RTVSPost2010PropOp57
 70
     1
102
RTVSPropertyOp0
 70
     1
102
RTVSPropertyOp1
 70
     1
102
RTVSPropertyOp2
 70
     1
102
RTVSPropertyOp3
 70
     1
102
RTVSPropertyOp4
 70
     1
102
RTVSPropertyOp5
 70
     1
102
RTVSPropertyOp6
 70
     1
102
RTVSPropertyOp7
 70
     1
102
RTVSPropertyOp8
 70
     1
102
RTVSPropertyOp9
 70
     1
102
RTVSPropertyOp10
 70
     1
102
RTVSPropertyOp11
 70
     1
102
RTVSPropertyOp12
 70
     1
102
RTVSPropertyOp13
 70
     1
102
RTVSPropertyOp14
 70
     1
102
RTVSPropertyOp15
 70
     1
102
RTVSPropertyOp16
 70
     1
102
RTVSPropertyOp17
 70
     1
102
RTVSPropertyOp18
 70
     1
102
RTVSPropertyOp19
 70
     1
102
RTVSPropertyOp20
 70
     1
102
RTVSPropertyOp21
 70
     1
102
RTVSPropertyOp22
 70
     1
102
RTVSPropertyOp23
 70
     1
102
RTVSPropertyOp24
 70
     1
102
RTVSPropertyOp25
 70
     1
102
RTVSPropertyOp26
 70
     1
102
RTVSPropertyOp27
 70
     1
102
RTVSPropertyOp28
 70
     1
102
RTVSPropertyOp29
 70
     1
102
RTVSPropertyOp30
 70
     1
102
RTVSPropertyOp31
 70
     1
102
RTVSPropertyOp32
 70
     1
102
RTVSPropertyOp33
 70
     1
102
RTVSPropertyOp34
 70
     1
102
RTVSPropertyOp35
 70
     1
102
RTVSPropertyOp36
 70
     1
102
RTVSPropertyOp37
 70
     1
102
RTVSPropertyOp38
 70
     1
102
RTVSPropertyOp39
 70
     1
102
RTVSPropertyOp40
 70
     1
102
RTVSPropertyOp41
 70
     1
102
RTVSPropertyOp42
 70
     1
102
RTVSPropertyOp43
 70
     1
102
RTVSPropertyOp44
 70
     1
102
RTVSPropertyOp45
 70
     1
102
RTVSPropertyOp46
 70
     1
102
RTVSPropertyOp47
 70
     1
102
RTVSPropertyOp48
 70
     1
102
RTVSPropertyOp49
 70
     1
102
RTVSPropertyOp50
 70
     1
102
RTVSPropertyOp51
 70
     0
102
RTVSPropertyOp52
 70
     0
102
RTVSPropertyOp53
 70
     1
102
RTVSPropertyOp54
 70
     1
102
RTVSPropertyOp55
 70
     1
102
RTVSPropertyOp56
 70
     1
102
RTVSPropertyOp57
 70
     1
102
RTVSPropertyOp58
 70
     1
102
RTVSPropertyOp59
 70
     1
102
RTVSPropertyOp60
 70
     1
102
RTVSPropertyOp61
 70
     1
102
RTVSPropertyOp62
 70
     1
  0
XRECORD
  5
49F
102
{ACAD_REACTORS
330
49E
102
}
330
49E
100
AcDbXrecord
280
     1
102
RTVSPost2010Prop28
280
     0
102
RTVSPost2010PropOp28
 70
     1
102
RTVSPost2010Prop29
280
     1
102
RTVSPost2010PropOp29
 70
     1
102
RTVSPost2010Prop30
280
     1
102
RTVSPost2010PropOp30
 70
     1
102
RTVSPost2010Prop31
280
     0
102
RTVSPost2010PropOp31
 70
     1
102
RTVSPost2010Prop32
280
     0
102
RTVSPost2010PropOp32
 70
     1
102
RTVSPost2010Prop33
280
     0
102
RTVSPost2010PropOp33
 70
     1
102
RTVSPost2010Prop34
280
     0
102
RTVSPost2010PropOp34
 70
     1
102
RTVSPost2010Prop35
280
     0
102
RTVSPost2010PropOp35
 70
     1
102
RTVSPost2010Prop36
280
     0
102
RTVSPost2010PropOp36
 70
     1
102
RTVSPost2010Prop37
 90
       50
102
RTVSPost2010PropOp37
 70
     1
102
RTVSPost2010Prop38
140
0.0
102
RTVSPost2010PropOp38
 70
     1
102
RTVSPost2010Prop39
140
1.0
102
RTVSPost2010PropOp39
 70
     1
102
RTVSPost2010Prop40
 90
        0
102
RTVSPost2010PropOp40
 70
     1
102
RTVSPost2010Prop41ColorIndex
 90
       18
102
RTVSPost2010Prop41ColorRGB
 90
        0
102
RTVSPost2010PropOp41
 70
     1
102
RTVSPost2010Prop42
 90
       50
102
RTVSPost2010PropOp42
 70
     1
102
RTVSPost2010Prop43
 90
        3
102
RTVSPost2010PropOp43
 70
     1
102
RTVSPost2010Prop44ColorIndex
 90
        5
102
RTVSPost2010Prop44ColorRGB
 90
      255
102
RTVSPost2010PropOp44
 70
     1
102
RTVSPost2010Prop45
280
     0
102
RTVSPost2010PropOp45
 70
     1
102
RTVSPost2010Prop46
 90
       50
102
RTVSPost2010PropOp46
 70
     1
102
RTVSPost2010Prop47
 90
       50
102
RTVSPost2010PropOp47
 70
     1
102
RTVSPost2010Prop48
 90
       50
102
RTVSPost2010PropOp48
 70
     1
102
RTVSPost2010Prop49
280
     0
102
RTVSPost2010PropOp49
 70
     1
102
RTVSPost2010Prop50
 90
       50
102
RTVSPost2010PropOp50
 70
     1
102
RTVSPost2010Prop51ColorIndex
 90
      256
102
RTVSPost2010Prop51ColorRGB
 90
-16777216
102
RTVSPost2010PropOp51
 70
     0
102
RTVSPost2010Prop52
140
1.0
102
RTVSPost2010PropOp52
 70
     0
102
RTVSPost2010Prop53
 90
        2
102
RTVSPost2010PropOp53
 70
     1
102
RTVSPost2010Prop54
  1
strokes_ogs.tif
102
RTVSPost2010PropOp54
 70
     1
102
RTVSPost2010Prop55
280
     0
102
RTVSPost2010PropOp55
 70
     1
102
RTVSPost2010Prop56
140
1.0
102
RTVSPost2010PropOp56
 70
     1
102
RTVSPost2010Prop57
140
1.0
102
RTVSPost2010PropOp57
 70
     1
102
RTVSPropertyOp0
 70
     1
102
RTVSPropertyOp1
 70
     1
102
RTVSPropertyOp2
 70
     1
102
RTVSPropertyOp3
 70
     1
102
RTVSPropertyOp4
 70
     1
102
RTVSPropertyOp5
 70
     1
102
RTVSPropertyOp6
 70
     1
102
RTVSPropertyOp7
 70
     1
102
RTVSPropertyOp8
 70
     1
102
RTVSPropertyOp9
 70
     1
102
RTVSPropertyOp10
 70
     1
102
RTVSPropertyOp11
 70
     1
102
RTVSPropertyOp12
 70
     1
102
RTVSPropertyOp13
 70
     1
102
RTVSPropertyOp14
 70
     1
102
RTVSPropertyOp15
 70
     1
102
RTVSPropertyOp16
 70
     1
102
RTVSPropertyOp17
 70
     1
102
RTVSPropertyOp18
 70
     1
102
RTVSPropertyOp19
 70
     1
102
RTVSPropertyOp20
 70
     1
102
RTVSPropertyOp21
 70
     1
102
RTVSPropertyOp22
 70
     1
102
RTVSPropertyOp23
 70
     1
102
RTVSPropertyOp24
 70
     1
102
RTVSPropertyOp25
 70
     1
102
RTVSPropertyOp26
 70
     1
102
RTVSPropertyOp27
 70
     1
102
RTVSPropertyOp28
 70
     1
102
RTVSPropertyOp29
 70
     1
102
RTVSPropertyOp30
 70
     1
102
RTVSPropertyOp31
 70
     1
102
RTVSPropertyOp32
 70
     1
102
RTVSPropertyOp33
 70
     1
102
RTVSPropertyOp34
 70
     1
102
RTVSPropertyOp35
 70
     1
102
RTVSPropertyOp36
 70
     1
102
RTVSPropertyOp37
 70
     1
102
RTVSPropertyOp38
 70
     1
102
RTVSPropertyOp39
 70
     1
102
RTVSPropertyOp40
 70
     1
102
RTVSPropertyOp41
 70
     1
102
RTVSPropertyOp42
 70
     1
102
RTVSPropertyOp43
 70
     1
102
RTVSPropertyOp44
 70
     1
102
RTVSPropertyOp45
 70
     1
102
RTVSPropertyOp46
 70
     1
102
RTVSPropertyOp47
 70
     1
102
RTVSPropertyOp48
 70
     1
102
RTVSPropertyOp49
 70
     1
102
RTVSPropertyOp50
 70
     1
102
RTVSPropertyOp51
 70
     0
102
RTVSPropertyOp52
 70
     0
102
RTVSPropertyOp53
 70
     1
102
RTVSPropertyOp54
 70
     1
102
RTVSPropertyOp55
 70
     1
102
RTVSPropertyOp56
 70
     1
102
RTVSPropertyOp57
 70
     1
102
RTVSPropertyOp58
 70
     1
102
RTVSPropertyOp59
 70
     1
102
RTVSPropertyOp60
 70
     1
102
RTVSPropertyOp61
 70
     1
102
RTVSPropertyOp62
 70
     1
  0
XRECORD
  5
4A1
102
{ACAD_REACTORS
330
4A0
102
}
330
4A0
100
AcDbXrecord
280
     1
102
RTVSPost2010Prop28
280
     0
102
RTVSPost2010PropOp28
 70
     1
102
RTVSPost2010Prop29
280
     1
102
RTVSPost2010PropOp29
 70
     1
102
RTVSPost2010Prop30
280
     1
102
RTVSPost2010PropOp30
 70
     1
102
RTVSPost2010Prop31
280
     0
102
RTVSPost2010PropOp31
 70
     1
102
RTVSPost2010Prop32
280
     0
102
RTVSPost2010PropOp32
 70
     1
102
RTVSPost2010Prop33
280
     0
102
RTVSPost2010PropOp33
 70
     1
102
RTVSPost2010Prop34
280
     0
102
RTVSPost2010PropOp34
 70
     1
102
RTVSPost2010Prop35
280
     0
102
RTVSPost2010PropOp35
 70
     1
102
RTVSPost2010Prop36
280
     0
102
RTVSPost2010PropOp36
 70
     1
102
RTVSPost2010Prop37
 90
       50
102
RTVSPost2010PropOp37
 70
     1
102
RTVSPost2010Prop38
140
0.0
102
RTVSPost2010PropOp38
 70
     1
102
RTVSPost2010Prop39
140
1.0
102
RTVSPost2010PropOp39
 70
     1
102
RTVSPost2010Prop40
 90
        0
102
RTVSPost2010PropOp40
 70
     1
102
RTVSPost2010Prop41ColorIndex
 90
       18
102
RTVSPost2010Prop41ColorRGB
 90
        0
102
RTVSPost2010PropOp41
 70
     1
102
RTVSPost2010Prop42
 90
       50
102
RTVSPost2010PropOp42
 70
     1
102
RTVSPost2010Prop43
 90
        3
102
RTVSPost2010PropOp43
 70
     1
102
RTVSPost2010Prop44ColorIndex
 90
        5
102
RTVSPost2010Prop44ColorRGB
 90
      255
102
RTVSPost2010PropOp44
 70
     1
102
RTVSPost2010Prop45
280
     0
102
RTVSPost2010PropOp45
 70
     1
102
RTVSPost2010Prop46
 90
       50
102
RTVSPost2010PropOp46
 70
     1
102
RTVSPost2010Prop47
 90
       50
102
RTVSPost2010PropOp47
 70
     1
102
RTVSPost2010Prop48
 90
       50
102
RTVSPost2010PropOp48
 70
     1
102
RTVSPost2010Prop49
280
     0
102
RTVSPost2010PropOp49
 70
     1
102
RTVSPost2010Prop50
 90
       50
102
RTVSPost2010PropOp50
 70
     1
102
RTVSPost2010Prop51ColorIndex
 90
      256
102
RTVSPost2010Prop51ColorRGB
 90
-16777216
102
RTVSPost2010PropOp51
 70
     0
102
RTVSPost2010Prop52
140
1.0
102
RTVSPost2010PropOp52
 70
     0
102
RTVSPost2010Prop53
 90
        2
102
RTVSPost2010PropOp53
 70
     1
102
RTVSPost2010Prop54
  1
strokes_ogs.tif
102
RTVSPost2010PropOp54
 70
     1
102
RTVSPost2010Prop55
280
     0
102
RTVSPost2010PropOp55
 70
     1
102
RTVSPost2010Prop56
140
1.0
102
RTVSPost2010PropOp56
 70
     1
102
RTVSPost2010Prop57
140
1.0
102
RTVSPost2010PropOp57
 70
     1
102
RTVSPropertyOp0
 70
     1
102
RTVSPropertyOp1
 70
     1
102
RTVSPropertyOp2
 70
     1
102
RTVSPropertyOp3
 70
     1
102
RTVSPropertyOp4
 70
     1
102
RTVSPropertyOp5
 70
     1
102
RTVSPropertyOp6
 70
     1
102
RTVSPropertyOp7
 70
     1
102
RTVSPropertyOp8
 70
     1
102
RTVSPropertyOp9
 70
     1
102
RTVSPropertyOp10
 70
     1
102
RTVSPropertyOp11
 70
     1
102
RTVSPropertyOp12
 70
     1
102
RTVSPropertyOp13
 70
     1
102
RTVSPropertyOp14
 70
     1
102
RTVSPropertyOp15
 70
     1
102
RTVSPropertyOp16
 70
     1
102
RTVSPropertyOp17
 70
     1
102
RTVSPropertyOp18
 70
     1
102
RTVSPropertyOp19
 70
     1
102
RTVSPropertyOp20
 70
     1
102
RTVSPropertyOp21
 70
     1
102
RTVSPropertyOp22
 70
     1
102
RTVSPropertyOp23
 70
     1
102
RTVSPropertyOp24
 70
     1
102
RTVSPropertyOp25
 70
     1
102
RTVSPropertyOp26
 70
     1
102
RTVSPropertyOp27
 70
     1
102
RTVSPropertyOp28
 70
     1
102
RTVSPropertyOp29
 70
     1
102
RTVSPropertyOp30
 70
     1
102
RTVSPropertyOp31
 70
     1
102
RTVSPropertyOp32
 70
     1
102
RTVSPropertyOp33
 70
     1
102
RTVSPropertyOp34
 70
     1
102
RTVSPropertyOp35
 70
     1
102
RTVSPropertyOp36
 70
     1
102
RTVSPropertyOp37
 70
     1
102
RTVSPropertyOp38
 70
     1
102
RTVSPropertyOp39
 70
     1
102
RTVSPropertyOp40
 70
     1
102
RTVSPropertyOp41
 70
     1
102
RTVSPropertyOp42
 70
     1
102
RTVSPropertyOp43
 70
     1
102
RTVSPropertyOp44
 70
     1
102
RTVSPropertyOp45
 70
     1
102
RTVSPropertyOp46
 70
     1
102
RTVSPropertyOp47
 70
     1
102
RTVSPropertyOp48
 70
     1
102
RTVSPropertyOp49
 70
     1
102
RTVSPropertyOp50
 70
     1
102
RTVSPropertyOp51
 70
     0
102
RTVSPropertyOp52
 70
     0
102
RTVSPropertyOp53
 70
     1
102
RTVSPropertyOp54
 70
     1
102
RTVSPropertyOp55
 70
     1
102
RTVSPropertyOp56
 70
     1
102
RTVSPropertyOp57
 70
     1
102
RTVSPropertyOp58
 70
     1
102
RTVSPropertyOp59
 70
     1
102
RTVSPropertyOp60
 70
     1
102
RTVSPropertyOp61
 70
     1
102
RTVSPropertyOp62
 70
     1
  0
XRECORD
  5
497
102
{ACAD_REACTORS
330
496
102
}
330
496
100
AcDbXrecord
280
     1
102
RTVSPost2010Prop28
280
     0
102
RTVSPost2010PropOp28
 70
     1
102
RTVSPost2010Prop29
280
     1
102
RTVSPost2010PropOp29
 70
     1
102
RTVSPost2010Prop30
280
     1
102
RTVSPost2010PropOp30
 70
     1
102
RTVSPost2010Prop31
280
     0
102
RTVSPost2010PropOp31
 70
     1
102
RTVSPost2010Prop32
280
     0
102
RTVSPost2010PropOp32
 70
     1
102
RTVSPost2010Prop33
280
     0
102
RTVSPost2010PropOp33
 70
     1
102
RTVSPost2010Prop34
280
     0
102
RTVSPost2010PropOp34
 70
     1
102
RTVSPost2010Prop35
280
     0
102
RTVSPost2010PropOp35
 70
     1
102
RTVSPost2010Prop36
280
     0
102
RTVSPost2010PropOp36
 70
     1
102
RTVSPost2010Prop37
 90
       50
102
RTVSPost2010PropOp37
 70
     1
102
RTVSPost2010Prop38
140
0.0
102
RTVSPost2010PropOp38
 70
     1
102
RTVSPost2010Prop39
140
1.0
102
RTVSPost2010PropOp39
 70
     1
102
RTVSPost2010Prop40
 90
        0
102
RTVSPost2010PropOp40
 70
     1
102
RTVSPost2010Prop41ColorIndex
 90
       18
102
RTVSPost2010Prop41ColorRGB
 90
        0
102
RTVSPost2010PropOp41
 70
     1
102
RTVSPost2010Prop42
 90
       50
102
RTVSPost2010PropOp42
 70
     1
102
RTVSPost2010Prop43
 90
        3
102
RTVSPost2010PropOp43
 70
     1
102
RTVSPost2010Prop44ColorIndex
 90
        5
102
RTVSPost2010Prop44ColorRGB
 90
      255
102
RTVSPost2010PropOp44
 70
     1
102
RTVSPost2010Prop45
280
     0
102
RTVSPost2010PropOp45
 70
     1
102
RTVSPost2010Prop46
 90
       50
102
RTVSPost2010PropOp46
 70
     1
102
RTVSPost2010Prop47
 90
       50
102
RTVSPost2010PropOp47
 70
     1
102
RTVSPost2010Prop48
 90
       50
102
RTVSPost2010PropOp48
 70
     1
102
RTVSPost2010Prop49
280
     0
102
RTVSPost2010PropOp49
 70
     1
102
RTVSPost2010Prop50
 90
       50
102
RTVSPost2010PropOp50
 70
     1
102
RTVSPost2010Prop51ColorIndex
 90
      256
102
RTVSPost2010Prop51ColorRGB
 90
-16777216
102
RTVSPost2010PropOp51
 70
     0
102
RTVSPost2010Prop52
140
1.0
102
RTVSPost2010PropOp52
 70
     0
102
RTVSPost2010Prop53
 90
        2
102
RTVSPost2010PropOp53
 70
     1
102
RTVSPost2010Prop54
  1
strokes_ogs.tif
102
RTVSPost2010PropOp54
 70
     1
102
RTVSPost2010Prop55
280
     0
102
RTVSPost2010PropOp55
 70
     1
102
RTVSPost2010Prop56
140
1.0
102
RTVSPost2010PropOp56
 70
     1
102
RTVSPost2010Prop57
140
1.0
102
RTVSPost2010PropOp57
 70
     1
102
RTVSPropertyOp0
 70
     1
102
RTVSPropertyOp1
 70
     1
102
RTVSPropertyOp2
 70
     1
102
RTVSPropertyOp3
 70
     1
102
RTVSPropertyOp4
 70
     1
102
RTVSPropertyOp5
 70
     1
102
RTVSPropertyOp6
 70
     1
102
RTVSPropertyOp7
 70
     1
102
RTVSPropertyOp8
 70
     1
102
RTVSPropertyOp9
 70
     1
102
RTVSPropertyOp10
 70
     1
102
RTVSPropertyOp11
 70
     1
102
RTVSPropertyOp12
 70
     1
102
RTVSPropertyOp13
 70
     1
102
RTVSPropertyOp14
 70
     1
102
RTVSPropertyOp15
 70
     1
102
RTVSPropertyOp16
 70
     1
102
RTVSPropertyOp17
 70
     1
102
RTVSPropertyOp18
 70
     1
102
RTVSPropertyOp19
 70
     1
102
RTVSPropertyOp20
 70
     1
102
RTVSPropertyOp21
 70
     1
102
RTVSPropertyOp22
 70
     1
102
RTVSPropertyOp23
 70
     1
102
RTVSPropertyOp24
 70
     1
102
RTVSPropertyOp25
 70
     1
102
RTVSPropertyOp26
 70
     1
102
RTVSPropertyOp27
 70
     1
102
RTVSPropertyOp28
 70
     1
102
RTVSPropertyOp29
 70
     1
102
RTVSPropertyOp30
 70
     1
102
RTVSPropertyOp31
 70
     1
102
RTVSPropertyOp32
 70
     1
102
RTVSPropertyOp33
 70
     1
102
RTVSPropertyOp34
 70
     1
102
RTVSPropertyOp35
 70
     1
102
RTVSPropertyOp36
 70
     1
102
RTVSPropertyOp37
 70
     1
102
RTVSPropertyOp38
 70
     1
102
RTVSPropertyOp39
 70
     1
102
RTVSPropertyOp40
 70
     1
102
RTVSPropertyOp41
 70
     1
102
RTVSPropertyOp42
 70
     1
102
RTVSPropertyOp43
 70
     1
102
RTVSPropertyOp44
 70
     1
102
RTVSPropertyOp45
 70
     1
102
RTVSPropertyOp46
 70
     1
102
RTVSPropertyOp47
 70
     1
102
RTVSPropertyOp48
 70
     1
102
RTVSPropertyOp49
 70
     1
102
RTVSPropertyOp50
 70
     1
102
RTVSPropertyOp51
 70
     0
102
RTVSPropertyOp52
 70
     0
102
RTVSPropertyOp53
 70
     1
102
RTVSPropertyOp54
 70
     1
102
RTVSPropertyOp55
 70
     1
102
RTVSPropertyOp56
 70
     1
102
RTVSPropertyOp57
 70
     1
102
RTVSPropertyOp58
 70
     1
102
RTVSPropertyOp59
 70
     1
102
RTVSPropertyOp60
 70
     1
102
RTVSPropertyOp61
 70
     1
102
RTVSPropertyOp62
 70
     1
  0
XRECORD
  5
48B
102
{ACAD_REACTORS
330
48A
102
}
330
48A
100
AcDbXrecord
280
     1
102
RTVSPost2010Prop28
280
     0
102
RTVSPost2010PropOp28
 70
     1
102
RTVSPost2010Prop29
280
     1
102
RTVSPost2010PropOp29
 70
     1
102
RTVSPost2010Prop30
280
     1
102
RTVSPost2010PropOp30
 70
     1
102
RTVSPost2010Prop31
280
     0
102
RTVSPost2010PropOp31
 70
     1
102
RTVSPost2010Prop32
280
     0
102
RTVSPost2010PropOp32
 70
     1
102
RTVSPost2010Prop33
280
     0
102
RTVSPost2010PropOp33
 70
     1
102
RTVSPost2010Prop34
280
     0
102
RTVSPost2010PropOp34
 70
     1
102
RTVSPost2010Prop35
280
     0
102
RTVSPost2010PropOp35
 70
     1
102
RTVSPost2010Prop36
280
     0
102
RTVSPost2010PropOp36
 70
     1
102
RTVSPost2010Prop37
 90
       50
102
RTVSPost2010PropOp37
 70
     1
102
RTVSPost2010Prop38
140
0.0
102
RTVSPost2010PropOp38
 70
     1
102
RTVSPost2010Prop39
140
1.0
102
RTVSPost2010PropOp39
 70
     1
102
RTVSPost2010Prop40
 90
        0
102
RTVSPost2010PropOp40
 70
     1
102
RTVSPost2010Prop41ColorIndex
 90
       18
102
RTVSPost2010Prop41ColorRGB
 90
        0
102
RTVSPost2010PropOp41
 70
     1
102
RTVSPost2010Prop42
 90
       50
102
RTVSPost2010PropOp42
 70
     1
102
RTVSPost2010Prop43
 90
        3
102
RTVSPost2010PropOp43
 70
     1
102
RTVSPost2010Prop44ColorIndex
 90
        5
102
RTVSPost2010Prop44ColorRGB
 90
      255
102
RTVSPost2010PropOp44
 70
     1
102
RTVSPost2010Prop45
280
     0
102
RTVSPost2010PropOp45
 70
     1
102
RTVSPost2010Prop46
 90
       50
102
RTVSPost2010PropOp46
 70
     1
102
RTVSPost2010Prop47
 90
       50
102
RTVSPost2010PropOp47
 70
     1
102
RTVSPost2010Prop48
 90
       50
102
RTVSPost2010PropOp48
 70
     1
102
RTVSPost2010Prop49
280
     0
102
RTVSPost2010PropOp49
 70
     1
102
RTVSPost2010Prop50
 90
       50
102
RTVSPost2010PropOp50
 70
     1
102
RTVSPost2010Prop51ColorIndex
 90
      256
102
RTVSPost2010Prop51ColorRGB
 90
-16777216
102
RTVSPost2010PropOp51
 70
     0
102
RTVSPost2010Prop52
140
1.0
102
RTVSPost2010PropOp52
 70
     0
102
RTVSPost2010Prop53
 90
        2
102
RTVSPost2010PropOp53
 70
     1
102
RTVSPost2010Prop54
  1
strokes_ogs.tif
102
RTVSPost2010PropOp54
 70
     1
102
RTVSPost2010Prop55
280
     0
102
RTVSPost2010PropOp55
 70
     1
102
RTVSPost2010Prop56
140
1.0
102
RTVSPost2010PropOp56
 70
     1
102
RTVSPost2010Prop57
140
1.0
102
RTVSPost2010PropOp57
 70
     1
102
RTVSPropertyOp0
 70
     1
102
RTVSPropertyOp1
 70
     1
102
RTVSPropertyOp2
 70
     1
102
RTVSPropertyOp3
 70
     1
102
RTVSPropertyOp4
 70
     1
102
RTVSPropertyOp5
 70
     1
102
RTVSPropertyOp6
 70
     1
102
RTVSPropertyOp7
 70
     1
102
RTVSPropertyOp8
 70
     1
102
RTVSPropertyOp9
 70
     1
102
RTVSPropertyOp10
 70
     1
102
RTVSPropertyOp11
 70
     1
102
RTVSPropertyOp12
 70
     1
102
RTVSPropertyOp13
 70
     1
102
RTVSPropertyOp14
 70
     1
102
RTVSPropertyOp15
 70
     1
102
RTVSPropertyOp16
 70
     1
102
RTVSPropertyOp17
 70
     1
102
RTVSPropertyOp18
 70
     1
102
RTVSPropertyOp19
 70
     1
102
RTVSPropertyOp20
 70
     1
102
RTVSPropertyOp21
 70
     1
102
RTVSPropertyOp22
 70
     1
102
RTVSPropertyOp23
 70
     1
102
RTVSPropertyOp24
 70
     1
102
RTVSPropertyOp25
 70
     1
102
RTVSPropertyOp26
 70
     1
102
RTVSPropertyOp27
 70
     1
102
RTVSPropertyOp28
 70
     1
102
RTVSPropertyOp29
 70
     1
102
RTVSPropertyOp30
 70
     1
102
RTVSPropertyOp31
 70
     1
102
RTVSPropertyOp32
 70
     1
102
RTVSPropertyOp33
 70
     1
102
RTVSPropertyOp34
 70
     1
102
RTVSPropertyOp35
 70
     1
102
RTVSPropertyOp36
 70
     1
102
RTVSPropertyOp37
 70
     1
102
RTVSPropertyOp38
 70
     1
102
RTVSPropertyOp39
 70
     1
102
RTVSPropertyOp40
 70
     1
102
RTVSPropertyOp41
 70
     1
102
RTVSPropertyOp42
 70
     1
102
RTVSPropertyOp43
 70
     1
102
RTVSPropertyOp44
 70
     1
102
RTVSPropertyOp45
 70
     1
102
RTVSPropertyOp46
 70
     1
102
RTVSPropertyOp47
 70
     1
102
RTVSPropertyOp48
 70
     1
102
RTVSPropertyOp49
 70
     1
102
RTVSPropertyOp50
 70
     1
102
RTVSPropertyOp51
 70
     0
102
RTVSPropertyOp52
 70
     0
102
RTVSPropertyOp53
 70
     1
102
RTVSPropertyOp54
 70
     1
102
RTVSPropertyOp55
 70
     1
102
RTVSPropertyOp56
 70
     1
102
RTVSPropertyOp57
 70
     1
102
RTVSPropertyOp58
 70
     1
102
RTVSPropertyOp59
 70
     1
102
RTVSPropertyOp60
 70
     1
102
RTVSPropertyOp61
 70
     1
102
RTVSPropertyOp62
 70
     1
  0
XRECORD
  5
4A3
102
{ACAD_REACTORS
330
4A2
102
}
330
4A2
100
AcDbXrecord
280
     1
102
RTVSPost2010Prop28
280
     0
102
RTVSPost2010PropOp28
 70
     1
102
RTVSPost2010Prop29
280
     1
102
RTVSPost2010PropOp29
 70
     1
102
RTVSPost2010Prop30
280
     1
102
RTVSPost2010PropOp30
 70
     1
102
RTVSPost2010Prop31
280
     0
102
RTVSPost2010PropOp31
 70
     1
102
RTVSPost2010Prop32
280
     0
102
RTVSPost2010PropOp32
 70
     1
102
RTVSPost2010Prop33
280
     0
102
RTVSPost2010PropOp33
 70
     1
102
RTVSPost2010Prop34
280
     0
102
RTVSPost2010PropOp34
 70
     1
102
RTVSPost2010Prop35
280
     0
102
RTVSPost2010PropOp35
 70
     1
102
RTVSPost2010Prop36
280
     0
102
RTVSPost2010PropOp36
 70
     1
102
RTVSPost2010Prop37
 90
       50
102
RTVSPost2010PropOp37
 70
     1
102
RTVSPost2010Prop38
140
0.0
102
RTVSPost2010PropOp38
 70
     1
102
RTVSPost2010Prop39
140
1.0
102
RTVSPost2010PropOp39
 70
     1
102
RTVSPost2010Prop40
 90
        0
102
RTVSPost2010PropOp40
 70
     1
102
RTVSPost2010Prop41ColorIndex
 90
       18
102
RTVSPost2010Prop41ColorRGB
 90
        0
102
RTVSPost2010PropOp41
 70
     1
102
RTVSPost2010Prop42
 90
       50
102
RTVSPost2010PropOp42
 70
     1
102
RTVSPost2010Prop43
 90
        3
102
RTVSPost2010PropOp43
 70
     1
102
RTVSPost2010Prop44ColorIndex
 90
        5
102
RTVSPost2010Prop44ColorRGB
 90
      255
102
RTVSPost2010PropOp44
 70
     1
102
RTVSPost2010Prop45
280
     0
102
RTVSPost2010PropOp45
 70
     1
102
RTVSPost2010Prop46
 90
       50
102
RTVSPost2010PropOp46
 70
     1
102
RTVSPost2010Prop47
 90
       50
102
RTVSPost2010PropOp47
 70
     1
102
RTVSPost2010Prop48
 90
       50
102
RTVSPost2010PropOp48
 70
     1
102
RTVSPost2010Prop49
280
     0
102
RTVSPost2010PropOp49
 70
     1
102
RTVSPost2010Prop50
 90
       50
102
RTVSPost2010PropOp50
 70
     1
102
RTVSPost2010Prop51ColorIndex
 90
      256
102
RTVSPost2010Prop51ColorRGB
 90
-16777216
102
RTVSPost2010PropOp51
 70
     0
102
RTVSPost2010Prop52
140
1.0
102
RTVSPost2010PropOp52
 70
     0
102
RTVSPost2010Prop53
 90
        2
102
RTVSPost2010PropOp53
 70
     1
102
RTVSPost2010Prop54
  1
strokes_ogs.tif
102
RTVSPost2010PropOp54
 70
     1
102
RTVSPost2010Prop55
280
     0
102
RTVSPost2010PropOp55
 70
     1
102
RTVSPost2010Prop56
140
1.0
102
RTVSPost2010PropOp56
 70
     1
102
RTVSPost2010Prop57
140
1.0
102
RTVSPost2010PropOp57
 70
     1
102
RTVSPropertyOp0
 70
     1
102
RTVSPropertyOp1
 70
     1
102
RTVSPropertyOp2
 70
     1
102
RTVSPropertyOp3
 70
     1
102
RTVSPropertyOp4
 70
     1
102
RTVSPropertyOp5
 70
     1
102
RTVSPropertyOp6
 70
     1
102
RTVSPropertyOp7
 70
     1
102
RTVSPropertyOp8
 70
     1
102
RTVSPropertyOp9
 70
     1
102
RTVSPropertyOp10
 70
     1
102
RTVSPropertyOp11
 70
     1
102
RTVSPropertyOp12
 70
     1
102
RTVSPropertyOp13
 70
     1
102
RTVSPropertyOp14
 70
     1
102
RTVSPropertyOp15
 70
     1
102
RTVSPropertyOp16
 70
     1
102
RTVSPropertyOp17
 70
     1
102
RTVSPropertyOp18
 70
     1
102
RTVSPropertyOp19
 70
     1
102
RTVSPropertyOp20
 70
     1
102
RTVSPropertyOp21
 70
     1
102
RTVSPropertyOp22
 70
     1
102
RTVSPropertyOp23
 70
     1
102
RTVSPropertyOp24
 70
     1
102
RTVSPropertyOp25
 70
     1
102
RTVSPropertyOp26
 70
     1
102
RTVSPropertyOp27
 70
     1
102
RTVSPropertyOp28
 70
     1
102
RTVSPropertyOp29
 70
     1
102
RTVSPropertyOp30
 70
     1
102
RTVSPropertyOp31
 70
     1
102
RTVSPropertyOp32
 70
     1
102
RTVSPropertyOp33
 70
     1
102
RTVSPropertyOp34
 70
     1
102
RTVSPropertyOp35
 70
     1
102
RTVSPropertyOp36
 70
     1
102
RTVSPropertyOp37
 70
     1
102
RTVSPropertyOp38
 70
     1
102
RTVSPropertyOp39
 70
     1
102
RTVSPropertyOp40
 70
     1
102
RTVSPropertyOp41
 70
     1
102
RTVSPropertyOp42
 70
     1
102
RTVSPropertyOp43
 70
     1
102
RTVSPropertyOp44
 70
     1
102
RTVSPropertyOp45
 70
     1
102
RTVSPropertyOp46
 70
     1
102
RTVSPropertyOp47
 70
     1
102
RTVSPropertyOp48
 70
     1
102
RTVSPropertyOp49
 70
     1
102
RTVSPropertyOp50
 70
     1
102
RTVSPropertyOp51
 70
     0
102
RTVSPropertyOp52
 70
     0
102
RTVSPropertyOp53
 70
     1
102
RTVSPropertyOp54
 70
     1
102
RTVSPropertyOp55
 70
     1
102
RTVSPropertyOp56
 70
     1
102
RTVSPropertyOp57
 70
     1
102
RTVSPropertyOp58
 70
     1
102
RTVSPropertyOp59
 70
     1
102
RTVSPropertyOp60
 70
     1
102
RTVSPropertyOp61
 70
     1
102
RTVSPropertyOp62
 70
     1
  0
ENDSEC
  0
EOF
